The Place I'll Return to Someday (Final Fantasy IX) Guitar Tab

Submitted: Oct 01, 2007 by archard (Last updated: Oct 01, 2007)

4.81818
Average: 4.8 (11 votes)
Download | Listen
Game: Final Fantasy IX
Composer(s): Nobuo Uematsu
Style: Transcription
Series: Final Fantasy

AutoScroll: Slow | Medium | Fast
The Place I'll Return to Someday
Composed by Nobuo Uematsu


7/10/06

E||-----------------------|-------------7----8----|--7---------------------|
B||------------------8----|--10-------------------|-------10----8----10----|
G||--7----9----10---------|-----------------------|------------------------|
D||-----------------------|-----------------------|------------------------|
A||-----------------------|-----------------------|------------------------|
E||-----------------------|-----------------------|------------------------|

-----------------------|-----------------------|-------------7----8----|
-----------------------|------------------8----|--10-------------------|
--10----9----7----5----|--7----9----10---------|-----------------------|
-----------------------|-----------------------|-----------------------|
-----------------------|-----------------------|-----------------------|
-----------------------|-----------------------|-----------------------|

--7---------------------|-----------------------|-----------------------|
-------10----10----9----|--10-------------------|------------------8----|
------------------------|-----------------------|--7----9----10---------|
------------------------|-----------------------|-----------------------|
------------------------|-----------------------|-----------------------|
------------------------|-----------------------|-----------------------|

-------------7----8----|--7---------------------|-----------------------|
--10-------------------|-------10----8----10----|-----------------------|
-----------------------|------------------------|--10----9----7----5----|
-----------------------|------------------------|-----------------------|
-----------------------|------------------------|-----------------------|
-----------------------|------------------------|-----------------------|

--------------------------|-------------------------|------------------------|
--------------------------|-------------------10----|------------------------|
--10----10----12----10----|--9----------------------|--9----12----10----9----|
--------------------------|-------12----10----------|------------------------|
--------------------------|-------------------------|------------------------|
--------------------------|-------------------------|------------------------|

----------------------|----------------------|--10----------10----8----|
----------------------|----------------------|--------10---------------|
--9----9----7---------|----------------------|-------------------------|
----------------------|----------------------|-------------------------|
----------------------|----------------------|-------------------------|
----------------------|----------------------|-------------------------|

--7---------------------|------------------------|--10----------10----8----|
-------10----8----10----|--6----8----10----10----|--------10---------------|
------------------------|------------------------|-------------------------|
------------------------|------------------------|-------------------------|
------------------------|------------------------|-------------------------|
------------------------|------------------------|-------------------------|

--7---------------------|-------------------------|--------10----------10----|
-------10----8----------|-------------------------|--------------10----------|
------------------10----|--12----9----------------|--------------------------|
------------------------|-------------11----12----|--12----------------------|
------------------------|-------------------------|--------------------------|
------------------------|-------------------------|--------------------------|

--8----7---------------|------------------------|--------10----------10----|
------------10----8----|--10----6----8----10----|--10----------10----------|
-----------------------|------------------------|--------------------------|
-----------------------|------------------------|--------------------------|
-----------------------|------------------------|--------------------------|
-----------------------|------------------------|--------------------------|

--8----7---------------|-------------------------|------------------------||
------------10----8----|-------------------------|------------------------||
-----------------------|--10----12----9----------|------------------------||
-----------------------|-------------------12----|--11----12--------------||
-----------------------|-------------------------|------------------------||
-----------------------|-------------------------|------------------------||
Login or Register to remove this ad.

3 comments on The Place I'll Return to Someday

Excellent =D

Excellent =D

Great tab, thanks!

5

Great tab, thanks!

SWEET, this has to be one

5

SWEET, this has to be one the most emotionally stimulating song of FFIX, NICE JOB!