Battle Theme (Final Fantasy IX) Guitar Tab

Submitted: Dec 09, 2007 by Kabukibear (Last updated: Sep 26, 2009)

4.95
Average: 5 (20 votes)
Download | Listen
Game: Final Fantasy IX
Composer(s): Nobuo Uematsu
Style: Arrangement, Fingerstyle
Series: Final Fantasy

AutoScroll: Slow | Medium | Fast
Battle Theme
~Final Fantasy IX~
Composed by: Nobuo Uematsu
Arranged by: Justin Lincoln

bpm=160

     E  E  E  E  E  E  E  E     E  E  E  E  E  E  E  E   
E||--------------------------|--------------------------|
B||--------------------------|--------------------------|
G||--------------------------|--------------------------|
D||--------------------------|--------------------------|
A||--0--0--0--0--0--0--------|--0--0--0--0--0--0--------|
E||--------------------3--3--|--------------------3--3--|

Segno
  E  E  E  E  E  E  E  E     E  E  E  E  E  E  E  E   
--------------------------|--------0--------1--0-----|
--------0-----1--0-----3--|--1-----1--3-----3--1-----|
-----2--0-----2--0-----0--|--2--------4--------------|
-----2--------------------|--------------------------|
--0--0--0--0--0--0--------|--0--0--0--0--0--0--------|
--------------------3--3--|--------------------3--3--|


  E  E  E  E  E  E  E  E     E  E  E  E  E  E  E  E   
--------------------------|--------0--------1--0-----|
--------0-----1--0-----3--|--1-----1--3-----3--1-----|
-----2--0-----2--0-----0--|--2--------4--------------|
-----2--------------------|--------------------------|
--0--0--0--0--0--0--------|--0--0--0--0--0--0--------|
--------------------3--3--|--------------------3--3--|


  E  E  E  E  E  E  E  E     Q    E  E  E  E     Q    E  E  Q     
--------------------------|-------5--3--1--0--|----------0--L----|
--------------------------|-------------------|--3-------0--L----|
--2-----------------------|-------------------|--0-------0--L----|
-----------2--L-----3-----|--2----------------|--0---------------|
--3--------3--L-----3-----|--3----------------|------------------|
--1--1--1--1--1--1--1--1--|--1----------------|--3----3-----3----|


  Q    E  E  Q       Q    Q       E  E  E  E  E  E  E  E   
--1-------3--L----|--5----7----|--------------------------|
--0-------0--L----|--0----0----|--------0-----1--0-----3--|
--0-------0--L----|--0----0----|-----2--0-----2--0-----0--|
------------------|------------|-----2--------------------|
------------------|------------|--0--0--0--0--0--0--------|
--3----3-----3----|--3----3----|--------------------3--3--|


  E  E  E  E  E  E  E  E     E  E  E  E  E  E  E  E   
--------0--------1--0-----|--------------------------|
--1-----1--3-----3--1-----|--------0-----1--0-----3--|
--2--------4--------------|-----2--0-----2--0-----0--|
--------------------------|-----2--------------------|
--0--0--0--0--0--0--------|--0--0--0--0--0--0--------|
--------------------3--3--|--------------------3--3--|


  E  E  E  E  E  E  E  E       Q.     E  E  E  E  E     Q.     E  E  E  E  E   
--------0--------1--0-----||-------------------0-----|--3------2--L-----------|
--1-----1--3-----3--1-----||---1------3--L-----------|--5------3--L-----4--5--|
--2--------4--------------||*--2------4--L-----------|------------------------|
--------------------------||*------------------------|------------------------|
--0--0--0--0--0--0--------||---0------0--------2--1--|--0------0--------------|
--------------------3--3--||----------------0--------|---------------0--3--4--|


  E  E  E  E  E  E  E  E     E  E  E  E  E  E  E  E     Q.     E  Q    Q     
--7--------5--L-----------|--L-----------------------|-----------------0----|
--7--------5--L-----------|--L-----------------------|--1------3--L----1----|
--------------------------|--------------------------|--2------2--L---------|
--------------------------|--------------------------|----------------------|
--0--0--0--0--0--0--------|--0--0--0--0--0--0--------|-----------------3----|
--------------------3--3--|--------------------3--3--|--1------1--L---------|


  Q.     Q    E  E  E     E  E  E  E  E  E  E  E     E  E  E  E  E  E  E  E     
-----------------------|--------------------------|---------------------------||
-----------------------|--------------------------|---------------------------||
--2--------------0-----|--2-----------------------|--L-----------------------*||
--3-----------0--0-----|--2-----------------------|--L-----------------------*||
-----------------2--1--|--0--0--0--0--0--0--------|--0--0--0--0--0--0---------||
--3------3-------------|--------------------3--3--|--------------------3--3---||


  E  E  E  E  E  E  Q       Q.     E  Q    E  E     E  E  E  E  E  E  Q     
--1--0--1-----------1----|--L--------------------|--3--2--3-----------3----|
-----------1-----1-------|-----------------------|-----------3--0--3-------|
--------------2----------|-----------------------|--0--------0--L----------|
-------------------------|--0------0--L----2--3--|--------------------3----|
--3--------3--L-----3----|-----------------------|-------------------------|
-------------------------|-----------------------|-------------------------|


  Q.     E  Q    Q       Q.     E  Q    Q       Q.     E  Q    Q     
--L-------------------|-----------------0----|----------------------|
----------------------|--1------1--L---------|--3------3--L----1----|
----------------------|--2------2--L----0----|--2------2--L----2----|
--2------2--L----2----|--3------3--L----3----|--3------3--L---------|
----------------------|----------------------|----------------------|
----------------------|----------------------|----------------------|


  Q.     E  E  E  E  E     Q.     E  Q    Q       Q.     E  Q    Q     
------------------------|----------------------|----------------------|
--0---------L-----0--1--|--3-------------------|---------0--L----1----|
--0---------L--2--------|--4-------------------|--2------2--L---------|
------------------------|----------------------|----------------------|
------------------------|----------------------|----------------------|
--3------3--L-----3-----|--4------4--L----4----|-----------------0----|


  Q.     E  Q    Q       E  E  E  E  E  E  E  E     Q.     E  E  E  E  E   
---------0--L----1----|--------------------1--0--|------------------------|
--3-------------------|--3--2--3--0-----0--------|------------------0-----|
---------0--L----2----|--------------0-----------|--0------2--L-----0-----|
--3-------------------|--------------------0-----|------------------------|
-----------------0----|--------------------------|--3------3--L--3-----3--|
--1------3--L---------|--3--------3--L-----------|------------------------|


  Q.     E  E  E  E  E     Q.     E  E  E  Q       E  E  E  E  E  E  E  E   
--0------0--L-----0-----|--2------2--L--0--2----|--3--------3--L-----3-----|
--1------------4--------|--3------3--L-----3----|--3--------3--L-----3-----|
--2------2--L-----------|--2------2--L-----2----|--5--------5--L-----5-----|
------------------------|-----------------------|--------------------------|
--0------3--L--2--0-----|-----------------------|--------------------------|
---------------------3--|--2------2--L-----2----|--3--3--3--3--3--3--3--3--|

                                                              D.S. al fine
  E  E  E  E  E  E  E  E     E  E  E  E  E  E  E  E     H.           Q     
--3--------3--L-----3-----|--3--------3--L-----3-----|--3------------3----|
--3--------3--L-----3-----|--3--------3--L-----3-----|--3------------3----|
--5--------5--L-----5-----|--4--------4--L-----4-----|--4------------4----|
--------------------------|--------------------------|--------------------|
--------------------------|--------------------------|--------------------|
--3--3--3--3--3--3--3--3--|--3--3--3--3--3--3--3--3--|--3------------3----|

fine
  W                  
--8----------------||
--8----------------||
--9----------------||
-------------------||
-------------------||
--8----------------||




Duration Legend
---------------
W - whole
H - half
Q - quarter
E - 8th
S - 16th
T - 32nd
X - 64th
. - note dotted
|-n-|  - n-tuplets


Tablature Legend
----------------
L - tied note
D.S. al fine - Go back to Segno and play until you reach fine
Login or Register to remove this ad.

4 comments on Battle Theme

Nice!!!!!! First the ff8

Nice!!!!!! First the ff8 battle theme and now this. You should do like a suite of all the final fantasy battle themes.

i have been looking for this

i have been looking for this tab... but do you have it for
power tab?... cause then it will make it alot easier for me to understand and learn it

thx

Chridstopher

square enix should hire you

square enix should hire you dude

hello

5
--------------------------|--------0--------1--0-----|
--------0-----1--0-----3--|--1-----1--3-----3--1-----|
-----2--0-----2--0-----0--|--2--------4--------------|
-----2--------------------|--------------------------|
--0--0--0--0--0--0--------|--0--0--0--0--0--0--------|
--------------------3--3--|--------------------3--3--|


  E  E  E  E  E  E  E  E     E  E  E  E  E  E  E  E   
--------------------------|--------0--------1--0-----|
--------0-----1--0-----3--|--1-----1--3-----3--1-----|
-----2--0-----2--0-----0--|--2--------4--------------|
-----2--------------------|--------------------------|
--0--0--0--0--0--0--------|--0--0--0--0--0--0--------|
--------------------3--3--|--------------------3--3--|

i struggle to keep this part up it is very hard

but the rest is moderate

awesome tab