Ads

Aloha de Chocobo (Final Fantasy IX) Guitar Tab

Submitted: Oct 01, 2007 by ronito (Last updated: Sep 16, 2009)

4.933335
Average: 4.9 (15 votes)
Download | Listen
Game: Final Fantasy IX
Composer(s): Nobuo Uematsu
Style: Arrangement, Fingerstyle
Series: Final Fantasy

AutoScroll: Slow | Medium | Fast
Aloha de Chocobo
Final Fantasy 9
Composed by Nobuo Uematsu
Tabbed by Ron Cruz
6/1/07

     E  E  E  E  E  E  E  E     E  E  E  E  E  E  E  E
E||--------3--------1--------|--------0-----0-----0------||
B||--------1-----------3-----|--------1-----1-----1------||
G||-----0-----0-----------0--|-----0-----0-----0-----0--*||
D||--------------------------|--------------------------*||
A||--3-----------------------|--3------------------------||
E||--------------3-----------|---------------------------||

  E  E  E  E  E  E  E  E     E  E  E  E  E  E  E  E
--------1--0--3--1--0--1--|--------1--0--3--1--0--1--|
-----0--------------------|-----0--------------------|
--------------------------|--------------------------|
--------------------------|--------------------------|
--------------------------|--------------------------|
--3-----------------------|--3-----------------------|

    E  E  E  E  E  E  E  E     E  E  E  E  E  E  E  E
|---------3--------1--------|--------0-----0-----0------||
|---------1-----------3-----|--------1-----1-----1------||
|*-----0-----0-----------0--|-----0-----0-----0-----0--*||
|*--------------------------|--------------------------*||
|---3-----------------------|--3------------------------||
|---------------3-----------|---------------------------||

   E  E  E  E  E  E  E  E     E  E  E  E  E  E  E  E
---3-----0--------3--0-----|--0-----------0-----------|
------------1-----------1--|--------1--------------3--|
*-----0--------2-----------|-----0-----0-----0--3-----|
*--------------------------|--------------------------|
---3-----------1-----------|--3-----------1-----------|
---------------------------|--------------------------|

  E  S S E  E  E  E  E  E     E  S S E  E  E  E  E  E
---------------------1--0--|-------0-3--5--6------------||
--1--1-3-1-----1-----------|--1--1------------1--0--1---||
------------3-----0--------|---------------------------*||
---------------------------|---------------------------*||
--3------------1-----------|--3------------1------------||
---------------------------|----------------------------||

  E  E  E  E  E  E  E  E     E  E   E  E  E  E  E  E
--5-----1-----------1--5--|--3------8-----3-----0--3--|
--6--------3--0--3--------|--5-----10-----5-----------|
--5-----------------------|--5-----10-----5-----------|
--3--3--------------------|---------------------------|
--------------------------|------------------3--------|
--------------3-----------|-----8------8--------------|

  E  E  E  E  E  E  E  E     E  S S E  E  E  E  E  E
--1--0--------------------|---------------------3-----|
--1-----3--1--0--1--3--0--|--1--1-3-1-----1--------1--|
--2-----------0-----------|--0---------3-----3--------|
--0-----------------------|---------------------------|
--------------------------|--3------------1-----------|
--------------3-----------|---------------------------|

  E  E  E  E  E  E  E  E     E  E   E  E  E  E  E  E
--5-----1-----------2--5--|--3------8-----3-----0--3--|
--6--------3--0--4--------|--5-----10-----5-----------|
--5-----------------------|--4-----10-----5-----------|
--3--3--------------------|---------------------------|
--------------2-----------|------------------3--------|
--------------------------|-----8------8--------------|

  E  S S E  E  E  E  E  E     E  S S E  E  E  E  E  E
-------0-------------1--0--|-------0-1--3--5--1--7-----|
--3--3---3--1--3-----------|--3--3------------------8--|
------------------3--------|---------------------------|
---------------------------|---------------------------|
--1------------------------|---------------------------|
---------------------------|--3------------------------|

  E  E  E  E  E  E  E  E     E  E  E  E  E  E  E  E      H        H
--8-----3--------1--------|--------0-----0-----0-----|---8-----------------||
--------1-----------3-----|--------1-----1-----1-----|---8-----------------||
-----0-----0-----------0--|-----0-----0-----0-----0--|---9-----------------||
--------------------------|--------------------------|--10-----------------||
--------------------------|--3-----------------------|--10-----------------||
--8-----------3-----------|--------------------------|---8-----------------||

Duration Legend
---------------
W - whole
H - half
Q - quarter
E - 8th
S - 16th
T - 32nd
X - 64th
. - note dotted
|-n-|  - n-tuplets
Login or Register to remove this ad.

5 comments on Aloha de Chocobo

i think in this part E S

i think in this part
E S S E E E E E E E S S E E E E E E
---------------------1--0--|-------0-3--5--6------------||
--1--1-3-1-----1-----------|--1--1------------1--0--1---||
------------3-----0--------|---------------------------*||
---------------------------|---------------------------*||
--3------------1-----------|--3------------1------------||
---------------------------|----------------------------||
A
|
|
|
The number 1 here should be 6 On E so those with normal fingers can reach it :)

this is pretty good

4

this is great, but i think it sounds better on a ukulele. it could be just me though

hello

you dont rate a tab based on how it sounds on different instruments

to zanarkand sounds better on piano but i dont rate tabs 4 star you noob, get out GTFO ZOMFG NOOB

Awesome

5

Man, This is a great tab, I'm a beginner and I find this tab easy to learn

Another one where it's

5

Another one where it's fantastic but there are just a couple weirdly off bits. Still the value of the tab is more than 5 stars, and those who want to play it can figure out what parts they need to adjust for their needs.