Ads

Under Her Control (Final Fantasy VIII) Guitar Tab

Submitted: Oct 01, 2007 by archard

5
Average: 5 (1 vote)
Download | Listen
Game: Final Fantasy VIII
Composer(s): Nobuo Uematsu
Style: Transcription
Series: Final Fantasy

AutoScroll: Slow | Medium | Fast
Under Her Control
Final Fantasy VIII
Nobuo Uematsu
(Created with Guitar Pro 2.2)

E||------------------|------------------------|------------------------|
B||------------------|------------------------|------------------------|
G||------------------|-------0-------0--------|-------0-------0--------|
D||------------------|-------6--3----6--3-----|-------6--3----6--3--2--|
A||------------------|---------------------3--|---------------7--------|
E||------------------|--1---------------------|--1---------------------|

-------------------------|--------------------------|------------------------|
-------------------------|--------------------------|------------------------|
--------0-------0--------|--------0--------0--------|-------0-------0--------|
--3-----6--3----6--3-----|--------6--3-----6--3-----|-------6--3----6--3-----|
----------------------3--|--------------------------|---------------------3--|
-----1-------------------|--1--1-----------------0--|--1---------------------|

------------------------|--------------------------|-------------------------|
------------------------|--------------------------|-------------------------|
-------0-------0--------|--------0--------0--------|--------0-------0--------|
-------6--3----6--3--2--|--3-----6--3-----6--3-----|--------6--3----6--3-----|
---------------7--------|-----------------------3--|-------------------------|
--1---------------------|-----1--------------------|--1--1----------------0--|

------------------------|-------------------------|-------------------------|
------------------------|-------------------------|-------------------------|
-------0-------0--------|-------0--------0--------|--------0-------0--------|
-------6--3----6--3-----|-------6--3-----6--3--2--|--3-----6--3----6--3-----|
---------------------3--|----------------7--------|----------------------3--|
--1---------------------|--1----------------------|-----1-------------------|

-------------------------|--------------------|-------------------|
-------------------------|--------------------|-------------------|
--------0-------0--------|--------------------|-------------------|
--------6--3----6--3-----|--------------------|-------------------|
-------------------------|---------------1----|-------------------|
--1--1----------------0--|--------------------|--0----------------|

-------------------------|--------------------------|-------------------|
-------------------------|--------------------------|-------------------|
--------0-------0--------|--------0--------0--------|-------------------|
--3-----6--3----6--3-----|--------6--3-----6--3-----|-------------------|
----------------------3--|--------------------------|--------------1----|
-----1-------------------|--1--1-----------------0--|-------------------|

-------------------|--------------------------|-------------------------|
-------------------|--------------------------|-------------------------|
-------------------|--------0-------0---------|--------0-------0--------|
-------------------|--3-----6--3----6--33-----|--------6--3----6--3-----|
-------------------|-----------------------3--|-------------------------|
--0----------------|-----1--------------------|--1--1----------------0--|

------------------------|-------------------------|-------------------------|
------------------------|-------------------------|-------------------------|
-------0-------0--------|-------0--------0--------|--------0-------0--------|
-------6--3----6--3-----|-------6--3-----6--3--2--|--3-----6--3----6--3-----|
---------------------3--|----------------7--------|----------------------3--|
--1---------------------|--1----------------------|-----1-------------------|

-------------------------|-------------------------|------------------------|
-------------------------|-------------------------|------------------------|
--------0-------0--------|-------0--------0--------|-------0-------0--------|
--------6--3----6--3-----|-------6--3-----6--3-----|-------6--3----6--3--2--|
-------------------------|----------------------3--|---------------7--------|
--1--1----------------0--|--1----------------------|--1---------------------|

-------------------------|--------------------------|-------------------|
-------------------------|--------------------------|-------------------|
--------0-------0--------|--------0--------0--------|-------------------|
--3-----6--3----6--3-----|--------6--3-----6--3-----|-------------------|
----------------------3--|--------------------------|--------------1----|
-----1-------------------|--1--1-----------------0--|-------------------|

-------------------|--------------------------|-------------------------|
-------------------|--------------------------|-------------------------|
-------------------|--------0-------0---------|--------0-------0--------|
-------------------|--3-----6--3----6--33-----|--------6--3----6--3-----|
-------------------|-----------------------3--|-------------------------|
--0----------------|-----1--------------------|--1--1----------------0--|

-------------------|-------------------||-------------------------|
-------------------|-------------------||-------------------------|
-------------------|-------------------||--------0-------0--------|
-------------------|-------------------||--3-----6--3----6--3-----|
--------------1----|-------------------||----------------------3--|
-------------------|--0----------------||-----1-------------------|

-------------------------|---------------------------|--------------------------|
-------------------------|-----1--4---------1--------|--3-----3-----2--1--------|
--------0-------0--------|---------------3--------0--|--3-----3-----3-----3--0--|
--------6--3----6--3-----|-----3-----1---3-----2-----|--5--0--5-----5-----------|
-------------------------|---------------1-----------|-----------1--3-----------|
--1--1----------------0--|--1---------------1--------|--------------------------|

--------------------------|------------------------|------------------|
-----1--4--------1--------|--3-----3------2--------|------------------|
--------------3--------0--|--3-----3------3--------|------------------|
-----3-----1--3-----2-----|--5--0--5------3--------|------------------|
--------------1-----------|-----------1---3--------|------------------|
--1--------------1--------|------------------------|------------------|

------------------------|-------------------------|-------------------------|
------------------------|-------------------------|-------------------------|
-------0-------0--------|-------0--------0--------|--------0-------0--------|
-------6--3----6--3-----|-------6--3-----6--3--2--|--3-----6--3----6--3-----|
---------------------3--|----------------7--------|----------------------3--|
--1---------------------|--1----------------------|-----1-------------------|

-------------------------|-------------------------|------------------------|
-------------------------|-------------------------|------------------------|
--------0-------0--------|-------0--------0--------|-------0-------0--------|
--------6--3----6--3-----|-------6--3-----6--3-----|-------6--3----6--3--2--|
-------------------------|----------------------3--|---------------7--------|
--1--1----------------0--|--1----------------------|--1---------------------|

-------------------------|--------------------------|------------------------|
-------------------------|--------------------------|------------------------|
--------0-------0--------|--------0--------0--------|-------0-------0--------|
--3-----6--3----6--3-----|--------6--3-----6--3-----|-------6--3----6--3-----|
----------------------3--|--------------------------|---------------------3--|
-----1-------------------|--1--1-----------------0--|--1---------------------|

------------------------|--------------------------|-------------------------|
------------------------|--------------------------|-------------------------|
-------0-------0--------|--------0--------0--------|--------0-------0--------|
-------6--3----6--3--2--|--3-----6--3-----6--3-----|--------6--3----6--3-----|
---------------7--------|-----------------------3--|-------------------------|
--1---------------------|-----1--------------------|--1--1----------------0--|

-------------------|-------------------||-------------------------|
-------------------|-------------------||-------------------------|
-------------------|-------------------||--------0-------0--------|
-------------------|-------------------||--3-----6--3----6--3-----|
--------------1----|-------------------||----------------------3--|
-------------------|--0----------------||-----1-------------------|

-------------------------|--------------------|-------------------|
-------------------------|--------------------|-------------------|
--------0-------0--------|--------------------|-------------------|
--------6--3----6--3-----|--------------------|-------------------|
-------------------------|---------------1----|-------------------|
--1--1----------------0--|--------------------|--0----------------|

-------------------------|--------------------------|------------------------|
-------------------------|--------------------------|------------------------|
--------0-------0--------|--------0--------0--------|-------0-------0--------|
--3-----6--3----6--3-----|--------6--3-----6--3-----|-------6--3----6--3-----|
----------------------3--|--------------------------|---------------------3--|
-----1-------------------|--1--1-----------------0--|--1---------------------|

------------------------|--------------------------|-------------------------|
------------------------|--------------------------|-------------------------|
-------0-------0--------|--------0--------0--------|--------0-------0--------|
-------6--3----6--3--2--|--3-----6--3-----6--3-----|--------6--3----6--3-----|
---------------7--------|-----------------------3--|-------------------------|
--1---------------------|-----1--------------------|--1--1----------------0--|

------------------------|-------------------------|-------------------------|
------------------------|-------------------------|-------------------------|
-------0-------0--------|-------0--------0--------|--------0-------0--------|
-------6--3----6--3-----|-------6--3-----6--3--2--|--3-----6--3----6--3-----|
---------------------3--|----------------7--------|----------------------3--|
--1---------------------|--1----------------------|-----1-------------------|

-------------------------|--------------------|-------------------|
-------------------------|--------------------|-------------------|
--------0-------0--------|--------------------|-------------------|
--------6--3----6--3-----|--------------------|-------------------|
-------------------------|---------------1----|-------------------|
--1--1----------------0--|--------------------|--0----------------|

-------------------------|--------------------------|-------------------|
-------------------------|--------------------------|-------------------|
--------0-------0--------|--------0--------0--------|-------------------|
--3-----6--3----6--3-----|--------6--3-----6--3-----|-------------------|
----------------------3--|--------------------------|--------------1----|
-----1-------------------|--1--1-----------------0--|-------------------|

-------------------|--------------------------|-------------------------|
-------------------|--------------------------|-------------------------|
-------------------|--------0-------0---------|--------0-------0--------|
-------------------|--3-----6--3----6--33-----|--------6--3----6--3-----|
-------------------|-----------------------3--|-------------------------|
--0----------------|-----1--------------------|--1--1----------------0--|

--------------------------|---------------------------|
-----1--4--------1--------|--3-----3------2--1--------|
--------------3--------0--|--3-----3------3-----3--0--|
-----3-----1--3-----2-----|--5--0--5------5-----------|
--------------1-----------|-----------1---3-----------|
--1--------------1--------|---------------------------|

--------------------------|------------------------|------------------|
-----1--4--------1--------|--3-----3------2--------|------------------|
--------------3--------0--|--3-----3------3--------|------------------|
-----3-----1--3-----2-----|--5--0--5------3--------|------------------|
--------------1-----------|-----------1---3--------|------------------|
--1--------------1--------|------------------------|------------------|

------------------------|-------------------------|-------------------------|
------------------------|-------------------------|-------------------------|
-------0-------0--------|-------0--------0--------|--------0-------0--------|
-------6--3----6--3-----|-------6--3-----6--3--2--|--3-----6--3----6--3-----|
---------------------3--|----------------7--------|----------------------3--|
--1---------------------|--1----------------------|-----1-------------------|

-------------------------|-------------------------||
-------------------------|-------------------------||
--------0-------0--------|-------0--------0--------||
--------6--3----6--3-----|-------6--3-----6--3-----||
-------------------------|----------------------3--||
--1--1----------------0--|--1----------------------||
Login or Register to remove this ad.

1 comment on Under Her Control

great tab awesome music

great tab awesome music