The Landing (Final Fantasy VIII) Guitar Tab

Submitted: Aug 15, 2006 by archard (Last updated: Feb 21, 2010)

5
Average: 5 (3 votes)
Download | Listen
Game: Final Fantasy VIII
Composer(s): Nobuo Uematsu
Style: Transcription
Series: Final Fantasy

AutoScroll: Slow | Medium | Fast
The Landing
Final Fantasy VIII
Composed by Nobuo Uematsu

8/15/06

This is the part of the song from 0:52 - 1:30

e-------------------------------------------------------
B-------------------------------------------------------
G------0-2-0-----0-2-4-5-4-2---4-0-2---0-----------2-0--
D--2-4-------4-----------------------4---2---4-0-4-----4
A-------------------------------------------------------
E-------------------------------------------------------

e-------------------------------------------------------
B-------------------------------------------------------
G------0-2-0-----0-2-4-5-4-2---4-0-2---0-------------0-2
D--2-4-------4-----------------------4---2---4-0-2-4----
A-------------------------------------------------------
E-------------------------------------------------------

Repeat

e-----0-1-3-1-3--5--3-1-0-1-------------------1--3-4-6-4-6--8--6-4-3-4---1
B--3------------------------1-3----------------------------------------4--
G-------------------------------------------------------------------------
D-------------------------------------------------------------------------
A-------------------------------------------------------------------------
E-------------------------------------------------------------------------
Login or Register to remove this ad.

3 comments on The Landing

This is great. I just wish

This is great.
I just wish the rest of it could be tabbed.

Yo, very nice. Hope the rest

Yo, very nice. Hope the rest appears sometime. :p

Dude, thats awesome :)

Dude, thats awesome :)