Roses and Wine (Final Fantasy VIII) Guitar Tab

Submitted: Oct 01, 2007 by archard (Last updated: Sep 16, 2009)

4.857145
Average: 4.9 (7 votes)
Download | Listen
Game: Final Fantasy VIII
Composer(s): Nobuo Uematsu
Style: 2 or more instruments, Transcription
Series: Final Fantasy

AutoScroll: Slow | Medium | Fast
Roses and Wine
Final Fantasy 8
Composed by Nobuo Uematsu

8/14/06

This is what plays in the background

e------------------------------------------------
B------------------------------------------------
G--2-0---2-----------2-----2-0---2-----------2---
D------4---2---4-2-4-----------4---2---4-2-4-----
A------------------------------------------------
E------------------------------------------------

e---------------------------------------------
B--------------------------------------------2
G--2-0---2-----------2-----0-----0-----2-0-2--
D------4---2---4-2-4---------4-2---2----------
A---------------------------------------------
E---------------------------------------------

e------------------------------------------------
B--------------------2-----------------------2---
G--2-0---2-----2-1-2-------4-2-0-4-0---2-0-2-----
D------4---2-------------------------------------
A------------------------------------------------
E------------------------------------------------

e---------------------------------------------
B--------------------2-----------------------2
G--4-2---4-----2-0-2-------4-2-0-4-0---2-0-2--
D------4---4----------------------------------
A---------------------------------------------
E---------------------------------------------

e---------------------------------------------
B---------------------------------------------
G--2-0---2-----0---0-4-----2-0---2-----------2
D------4---2-----4-------------4---2---4-2-4--
A---------------------------------------------
E---------------------------------------------

Main Theme

e-----------------------------------------------------
B-----------------------------------------------------
G------------------------0---------0---2-----4---0----
D--0---2---4-----2---4---------4---------------------2
A-----------------------------------------------------
E-----------------------------------------------------

e-----------------------------------------------------
B-----------------------------------------------------
G------4---2---------0-----------------0--------------
D--4-------------0-------2-----0---4---------4---2---0
A-----------------------------------------------------
E-----------------------------------------------------
Login or Register to remove this ad.

2 comments on Roses and Wine

DAMN you are the best tabber

DAMN you are the best tabber i seen on this site thanks for tabbbing this song your bad @$$ man. 5 Gold Stars to you :)

Wow

5

You never fail to impress me u made my tabdream come true XD