Maybe I'm a Lion (Final Fantasy VIII) Guitar Tab

Submitted: Oct 01, 2007 by archard

3.333335
Average: 3.3 (6 votes)
Download | Listen
Game: Final Fantasy VIII
Composer(s): Nobuo Uematsu
Style: Transcription
Series: Final Fantasy

AutoScroll: Slow | Medium | Fast
Maybe I'm a Lion
Final Fantasy VIII
Composed by Nobuo Uematsu

8/24/06

e-----------------------------------------------------------------
B-----------------------------------------------------------------
G-----------------------------------------------------------------
D------------------------------3-----4----------------3-----------
A--3----------5-----6----------1-----2----------3-----1----------4
E--1----------3-----4---------------------------1----------------2

e------------------------------------------------------
B------------------------------------------------------
G------------------------------------------------------
D------------------------------3-----4----------6-----7
A--3----------5-----6----------1-----2----------4-----5
E--1----------3-----4----------------------------------

e----------------------------------------
B----------------------2--1--------------
G--0-0-3-0---0---0-3-0--------0-0-3-0---0
D----------3--------------------------3--
A----------------------------------------
E----------------------------------------

This is the part that occurs about 1:40 into the song.

e-------------------------------------------------------------
B-------------------------------------------------------------
G------------------------1-0----------------------------------
D--3-----------1-----1-3-----3-1------------------------------
A----4-3-1-3-4---3-4-------------4-3-4-1-3---3-4-1-3---3-4-1-3
E-------------------------------------------------------------
Login or Register to remove this ad.

5 comments on Maybe I'm a Lion

Sounds great to me.

5

Sounds great to me.

power chords

i like power chords

yeah

Yeah, the power chords sounds really great.

I can't really figure out the rythm of the last part though.

hmm

something is wrond with the midi, it only plays the drum track for me. Ill just download the gp but figured youd wanna know

i remember having that

i remember having that problem once, but i dont remember how i fixed it unfortunately