Ads

Martial Law (Final Fantasy VIII) Bass Tab

Submitted: Oct 01, 2007 by archard (Last updated: May 07, 2008)

3.5
Average: 3.5 (2 votes)
Download | Listen
Game: Final Fantasy VIII
Composer(s): Nobuo Uematsu
Style: Transcription
Series: Final Fantasy

AutoScroll: Slow | Medium | Fast
Martial Law
Final Fantasy VIII
Nobuo Uematsu
(Created with Guitar Pro 2.2)

Bass

G||--------------|--0---------0---|--------0------|--------------|
D||--------------|----------------|---------------|--------------|
A||--------------|----------------|---------------|--------------|
E||--------------|----------------|---------------|--------------|

---------------|--0---------0---|---------0------|--------------|
-----------0---|----------------|----------------|--------------|
---------------|----------------|----------------|--------------|
---------------|----------------|----------------|--------------|

----------------|--0---------0---|---------0------|--------------|
------3----4----|----------------|----------------|--------------|
----------------|----------------|----------------|--------------|
----------------|----------------|----------------|--------------|

---------------|--0---------0---|---------0------|--------------|
---------------|----------------|----------------|--------------|
-----------3---|----------------|----------------|--------------|
---------------|----------------|----------------|--------------|

-------------2---|--0---------0---|---------0------|--------------|
-----0---3-------|----------------|----------------|--------------|
-----------------|----------------|----------------|--------------|
-----------------|----------------|----------------|--------------|

---------------|--0---------0---|---------0------|--------------|
-----------0---|----------------|----------------|--------------|
---------------|----------------|----------------|--------------|
---------------|----------------|----------------|--------------|

----------------|--0---------0---|---------0------|--------------|
------3-----4---|----------------|----------------|--------------|
----------------|----------------|----------------|--------------|
----------------|----------------|----------------|--------------|

---------------|--0---------0---|---------0------|--------------|
---------------|----------------|----------------|--------------|
-----------3---|----------------|----------------|--------------|
---------------|----------------|----------------|--------------|

-------------2---|--0---------0---|---------0------|--------------|
-----0---3-------|----------------|----------------|--------------|
-----------------|----------------|----------------|--------------|
-----------------|----------------|----------------|--------------|

---------------|--0---------0---|---------0------|---------------|
-----------0---|----------------|----------------|-----------0---|
---------------|----------------|----------------|---------------|
---------------|----------------|----------------|---------------|

-----------------|--0---------0---|---------0------|--------------|
-----0---3---0---|----------------|----------------|--------------|
-----------------|----------------|----------------|--------------|
-----------------|----------------|----------------|--------------|

---------------|--0---------0---|---------0------|--------------|
-----------0---|----------------|----------------|--------------|
---------------|----------------|----------------|--------------|
---------------|----------------|----------------|--------------|

----------------|--0---------0---|---------0------|--------------|
-----------3--4-|----------------|----------------|--------------|
----------------|----------------|----------------|--------------|
----------------|----------------|----------------|--------------|

---------------|--0---------0---|---------0------|--------------|
-----------0---|----------------|----------------|--------------|
---------------|----------------|----------------|--------------|
---------------|----------------|----------------|--------------|

-------------2---|--0---------0---|---------0------|--------------|
-----0---3-------|----------------|----------------|--------------|
-----------------|----------------|----------------|--------------|
-----------------|----------------|----------------|--------------|

---------------|--0---------0---|---------0------|--------------|
-----------0---|----------------|----------------|--------------|
---------------|----------------|----------------|--------------|
---------------|----------------|----------------|--------------|

----------------|--0---------0---|---------0------|--------------|
-----------3--4-|----------------|----------------|--------------|
----------------|----------------|----------------|--------------|
----------------|----------------|----------------|--------------|

---------------|--0---------0---|---------0------|--------7---5---|
-----------0---|----------------|----------------|----------------|
---------------|----------------|----------------|----------------|
---------------|----------------|----------------|----------------|

-----3----------|--0---------0---|---------0------|-----12------12---|
---------3------|----------------|----------------|------------------|
----------------|----------------|----------------|------------------|
----------------|----------------|----------------|------------------|

--10-----------10---|------------------||------------------|--------------|
----------12--------|------------------||------------------|--------------|
--------------------|--10---10---------||--------10---10---|--------------|
--------------------|------------------||------------------|--------------|

-------------------|------------------|-----------------|-----12------12---|
-------------------|------------------|-----------------|------------------|
----------8--------|--10---------10---|---------10------|------------------|
-----10-------10---|------------------|-----------------|------------------|

--10-----------10---|------------------||------------------|--------------|
----------12--------|------------------||------------------|--------------|
--------------------|--10---10---------||--------10---10---|--------------|
--------------------|------------------||------------------|--------------|

-------------------|----------------|----------------|--------------|
-------------------|--8---------8---|---------8------|--------------|
----------8--------|----------------|----------------|--------------|
-----10-------10---|----------------|----------------|--------------|

---------------|----------------|----------------|--------------|---------------|
---------------|--0---------0---|---------0------|--------------|-----------3---|
-----------3---|----------------|----------------|--------------|---------------|
---------------|----------------|----------------|--------------|---------------|

----------------|---------------|---------------|--1------------|--2------------|
--1---------1---|--------1------|---------------|---------------|---------------|
----------------|---------------|---------------|---------------|---------------|
----------------|---------------|---------------|---------------|---------------|

--------------|--------------||
--------------|--------------||
--------------|--------------||
--------------|--------------||
Login or Register to remove this ad.