Ads

Intruders (Final Fantasy VIII) Bass Tab

Submitted: Oct 01, 2007 by archard (Last updated: May 07, 2008)

5
Average: 5 (1 vote)
Download | Listen
Game: Final Fantasy VIII
Composer(s): Nobuo Uematsu
Style: Transcription
Series: Final Fantasy

AutoScroll: Slow | Medium | Fast
Intruders
Final Fantasy VIII
Composed by Nobuo Uematsu

9/9/06

Beginning about 20 seconds into the song

G--0---0----------------------------------------------
D-----------------------4---4---4---------------------
A----------3--------3--------------------0------------
E-------------------------------------------3--1------

G----------------0-2-------------
D-----3--------3-----2-----------
A--3--------------------2---0-2--
E-------------------------------0

G--0---0----------------0------------------------------
D-------------------------4---4--2-4-0-----------------
A----------3----------3------------------0-----0-------
E-------------3-----3----------------------------3-1---

G--------------0-1-2---------------0-5-----2
D-----3----------------2---------3----------
A--3-----------------------2---3------------
E-------------------------------------------

G---------------
D--4-----1------
A--------------3
E---------------

Repeat
Login or Register to remove this ad.