Login or Register to remove this ad.

Fisherman's Horizon (Final Fantasy VIII) Guitar Tab

Submitted: Oct 01, 2007 by Kabukibear (Last updated: Sep 16, 2009)

4.84
Average: 4.8 (25 votes)
Download | Listen
Game: Final Fantasy VIII
Composer(s): Nobuo Uematsu
Style: Arrangement, Fingerstyle
Series: Final Fantasy

AutoScroll: Slow | Medium | Fast
Fisherman's Horizon
~Final Fantasy VIII
Composed by:Nobuo Uematsu
Arranged by: Justin Lincoln

Drop D Tuning

     E  E  E  E  E  E  E  E     Q    E  E  Q    Q       E  E  E  E  Q    E  E
E||-----------3--2--3--0--3--|-------0---------------|--3-----5--2--3----2-----|
B||-----0--3-----1-----3-----|--3-------2--3---------|--0-----------0----------|
G||--------0-----2-----0-----|--0----2-----0----2----|--------5----------2-----|
D||-----0--------------------|--4----2----------3----|-----0--4----------0-----|
A||--------------------------|-------------3----0----|--------------3-------3--|
D||--5-----------------------|-----------------------|--5----------------------|

  E  E  E  E  E  E  E  E     Q    E  E  H             E  E  E  E  E  E  E  E
--3-----------------------|----------------------||------3--3--5--7-----3-----|
--0-----------------------|--0-------------------||------------------------3--|
-----------0--2--0--------|----------0--0--------||*--------0-----------------|
--------0-----------------|--0----4--------------||*-----0--------------0--3--|
--------------------3--0--|-------5--3--2--------||------------------3--------|
-----5--------------------|--5-------------------||---5-----------3-----------|

  E  E  E  E  E  E  E  E     E  E  E  E  E  E  E  E
-----3--5--3--3-----------|-----3--3--5--7-----0--7--|
--4-----------------------|--------------------8-----|
--------0-----------2-----|--------0--------7-----7--|
-----1-----------0-----1--|-----0--------------------|
--3-----------0-----------|--------------7-----------|
--------------------------|--5-----------------------|

   E  E  E  E  E  E  E   E      Q     Q    E  E  E  E
--10-----------0--------10--|--12----10----3--------5--|
---0-----7--0-----0------0--|--------------------------|
------7--------------7------|--12-----9----2-----------|
----------------------------|--------------------2-----|
----------------------------|---------0-------3--------|
----------------------------|--10----------3-----------|

  Q    E  E  E  E  Q       E  E  E  E  Q    E  E     E  E  E  E  Q    E  E
--7-------7--5--3--0----|-----3--3--5--7----3--0--|--3-----------0----------|
--5----8----------------|-------------------1-----|--------3--0-------3--1--|
-------------2----------|--------0-----5----------|--------0-----2----------|
-------9----------------|-----2-------------2-----|-----0--------3----------|
--0----7-----3----------|--0-----------0----------|-------------------------|
------------------------|-------------------------|--5----------------------|

  H        Q    Q       E  E  E  E  E  E  E  E     E  E  E  E  E  E  E  E
---------------------|-----3--3--5--7-----3-----|-----3--5--3--3-----------|
--3-------------1----|-----------------------3--|--4-----------------------|
--0--------3---------|--------0-----------------|--------0-----------2-----|
--3------------------|-----0--------------0--3--|-----1-----------0-----1--|
---------------------|-----------------3--------|--3-----------0-----------|
--1------------------|--5-----------3-----------|--------------------------|

  E  E  E  E  E  E  E  E      E  E  E  E  E  E  E   E
-----3--3--5--7-----0--7--|--10-----------0--------10--|
--------------------8-----|---0-----7--0-----0--3---0--|
--------0--------7-----7--|------7---------------------|
-----0--------------------|----------------------------|
--------------7-----------|----------------------------|
--5-----------------------|----------------------------|

   Q     Q    E  E  E  E     Q    E  E  E  E  Q       E  E  E  E  Q    E  E
--12----10----3--------5--|--7-------7--5--3--0----|-----3--3--5--7----3-----|
--------------------------|--5----8-----------3----|----------------------4--|
--12-----9----2-----------|-------------------0----|--------0-----5----5-----|
--------------------2-----|-------9----------------|-----2-------------2-----|
---------0-------3--------|--0----7-----3----------|--0-----------0----------|
--10----------3-----------|------------------------|-------------------------|

  E  E  E  E  E  E  E  E     E  E  E  E  H           E  E  E  E  E  E  E  E
--3-----------------------|--------------1--------|--------3--2-----------0--|
--------------------------|-----------------------|--0-----------3-----------|
-----------0-----0--------|--------0--2-----------|--------0-----------0-----|
--------2-----4-----2-----|-----------------------|-----0-----------2--------|
-----2-----------------2--|-----3-----------------|--------------0-----------|
--------------------------|--3--------------------|--5-----------------------|

  E  E  Q    E  E  E  E     E  E  E  E  E  E  E  E     E  E  E  E  Q.     E
-------------------------|--------0-----------------|------------------------|
--3----------------------|--0--------3--0--------2--|--0---------------------|
--------2----------2-----|-----0--------------------|---------------------2--|
-----4----------3-----3--|--2-----------------2-----|-----2--4--2--1---------|
--2----------3-----------|-----------------4--------|--2-----------2---------|
-------------------------|--------------4-----------|------------------------|

  E  E  E  E  Q    E  E     E  E  E  E  Q    Q       E  E  E  E  E  E  E  E
--------------2----------|-----------0--7---------|--3-----------------5-----|
-----------0-------3--0--|--1--0--1-----5----7----|--------------1-----------|
--0-----0-----0----------|--0-----1---------------|--------0--2-----2--0-----|
-----4--0----------------|--2-----0---------------|-----1--------------------|
--------------3----------|--0-----------4---------|--3--------------------6--|
--2----------------------|------------------------|--------------------------|

                                                   1st ending---------------,
  E  E  E  E  Q    Q       E  E  E  E  E  E  E  E     H        E  E  Q
--3----------------5----|--3-----------------------|--3--------0-----------||
------------------------|-----------0--3-----0--3--|--------------3--------||
--------------5---------|--------0--------0--------|-----------------5----*||
--------3--7------------|-----0--------------------|-----------4----------*||
-----3------------------|--------------------------|-----------3-----------||
--3---------------------|--5-----------------------|-----------------4-----||

2nd ending-,
  ^
  Q
--3----||
--0----||
--0----||
-------||
-------||
--5----||

Duration Legend
---------------
W - whole
H - half
Q - quarter
E - 8th
S - 16th
T - 32nd
X - 64th
. - note dotted
|-n-|  - n-tuplets
Login or Register to remove this ad.

17 comments on Fisherman's Horizon

I can't believe I never gave

I can't believe I never gave this tab any love. This is a GREAT tab.

Thanks I Love it!!!

Thanks I Love it!!!

Seems to me that the MIDI

Seems to me that the MIDI URL is broken.
Can anyone fix that?

It works fine for me.

It works fine for me.

Ah. Nevermind. It works fine

Ah. Nevermind. It works fine now.

wish all tabs were this good

wish all tabs were this good

Hey thanks, I tabbed this

5

Hey thanks, I tabbed this song a while ago and I lost it, so I stopped playing it. Thanks for the recovery. I'll also post what I can play on youtube soon!

everything you tab turns to

everything you tab turns to awesome!

Yay

Another great tab! too awsome! wooo!!!!!

yes!

5

yes!

Yargla!

5

Yargla!

fingering chart

5

im a learning classical guitarist and certain songs fingering charts are cryptic to me...in particular this one would anyone care to contribute a chart for it? I find they are highly helpful in many songs and if I knew this one it would clear up alot for me lol

answer pls

what did u mean by D tuning I I cant tune very well pls help me

Your lowest string is

Your lowest string is normally tuned to E. In drop d you lower that string to D.

From the Standard tuning,

From the Standard tuning, decrease the bigger chord E to -2 semi-tone, then E will become D, it's called "Drop D Tuning"

Thanks!

5

This is a great tab Kabukibear. It seemed impossible at first, but I stuck at it a couple weeks and it's finally starting to flow.

I sneakily made one change to suit myself:-

from

-----3--5--
--4--------
--------0--
-----1-----
--3--------
-----------

to

-----3--5--
--4--------
--------0--
-----------
--3--6-----
-----------

It allows me to just bar the 3rd fret for the two picks, altho, it probably allows that Eb to ring out. I wonder if you had any thoughts on that.

I like to do this part: E

5

I like to do this part:

   E  E  E  E  E  E  E   E   
--10-----------0--------10--|
---0-----7--0-----0------0--|
------7--------------7------|
----------------------------|
----------------------------|
----------------------------|

like this:

   E  E  E  E  E  E  E   E   
--10-----------0--------10--|
---0--------0-----0------0--|
---------11----------11-----|
------12--------------------|
----------------------------|
----------------------------|