Ads

Breezy (Final Fantasy VIII) Guitar Tab

Submitted: Jan 26, 2008 by insomniac (Last updated: Sep 26, 2009)

4.8
Average: 4.8 (10 votes)
Download | Listen
Game: Final Fantasy VIII
Composer(s): Nobuo Uematsu
Style: Natural harmonics, Transcription
Series: Final Fantasy

AutoScroll: Slow | Medium | Fast
Gtr I (E A D G B E) - 'Untitled'

OK, I took archard's TAB of Breezy and had a little tweak around 
and I feel that I have almost cracked it perfectly. The MIDI sounds 
alot better than i expected it to aswell. I'm really proud of this =D

  Gtr I
  E E E Q  E E E E E E Q  E E E   E E E Q  E E E  E E E Q  E E E
|-------2------2-------2------2-|-------0------0--------3------3--|
|-----0----0---------0----0-----|-----0----0----------0----0------|
|---2--------2-----2--------2---|---0--------0------0--------0----|
|-0--------------0--------------|-0---------------0---------------|
|-------------------------------|---------------------------------|
|-------------------------------|---------------------------------|


  E E E Q  E E E E E E Q  E E E   E E E Q  E E E  E E E E E E E E
|-------2------2-------2------2-|-------0------0--3-----2-----0----|
|-----0----0---------0----0-----|-----0----0--------0-3-----3------|
|---2--------2-----2--------2---|---0--------0------------2---0-3--|
|-0--------------0--------------|-0---------------0-----0----------|
|-------------------------------|----------------------------------|
|-------------------------------|----------------------------------|


  E E E Q  E E E E E E S S E E E E   E E E Q  E E E  E E E E E E E E
|-------2------2-------2h3p2-----2-|-------0------0--------3-----3---|
|-----2----2---------2-------2-----|-----3----3--------2-0---2-0---2-|
|---2--------2-----2-----------2---|---0--------0--------------------|
|-0--------------0-----------------|-0---------------0---------------|
|----------------------------------|---------------------------------|
|----------------------------------|---------------------------------|


  E E E Q  E E E  E E E E E E E E E E E E E E E E W
|-------2------2--5-----3-----2---3-----2-----3---0----|
|-----2----2--------1-------1---1-----0-----0---0-2----|
|---2--------2--------4---4---------0-----0-------2----|
|-0---------------0---------------2-----0-----2---2----|
|------------------------------------------------------|
|------------------------------------------------------|


  E E E Q  E E E  E E E Q  E E E  E E E Q  E E E  E E E Q  E E E
|-2-----2------2--5-----5------5--7-----7------7--5-----5------5-|
|---3------3--------6------6--------8------8--------7------7-----|
|-----2------2--------5------5--------7------7--------7------7---|
|-0---------------0---------------0---------------0--------------|
|----------------------------------------------------------------|
|----------------------------------------------------------------|


  E E E Q  E E E  E E E Q  E E E  E E E Q  E E Q.  Q  Q   Q   Q.
|-2-----2------2--5-----5------5--7-----7------7---5----------------|
|---3------3--------6------6--------8------8---------<7>------------|
|-----2------2--------5------5--------7------7-----------<7>--------|
|-0---------------0---------------0--------------------------<7>----|
|-------------------------------------------------------------------|
|-------------------------------------------------------------------|


  E E E Q  E E E  E E E Q  E E E  E E E Q  E E E  E E E Q  E E E
|-------3------3--5-----3---------------3---------5-----3--------|
|---0-3----3-0------3-0----3-0-3------3----3---3----3------3---3-|
|-----------------------------------3--------3--------3------3---|
|-0---------------0---------------0---------------0--------------|
|----------------------------------------------------------------|
|----------------------------------------------------------------|


  E E E Q  E E Q  E E Q  E E E  E E E Q  E E E.  W
|-------2------2------2------2--------0----------3----|
|-----0------0------0------0--------3----3---3---3----|
|---2------2------2------2--------4--------4-----3----|
|-0-----------------------------0----------------0----|
|-----------------------------------------------------|
|-----------------------------------------------------|
Login or Register to remove this ad.

10 comments on Breezy

I've always liked this

I've always liked this piece, thanks :)

absolutely amazing =) ty for

5

absolutely amazing =) ty for this

Yeah pretty much. I agree

4

Yeah pretty much. I agree with the dude that posted in archards breezy tab that it should be 2h3s2 rather than 2h3p2 as you have it. Also where are the high notes (14)--(10)? like on archards. they seemed to be pretty pivotal.

the 2h3s2 part comes down to

the 2h3s2 part comes down to personal preference, as for the high notes you mentioned, if you play the harmonics that are in this TAB you will hear that they sound the same...again that comes down to how you prefer to play the song. i just feel that playing harmonics sounds more accurate.

Minor ammendment

I've found that it's easier to play the 4th part of the tab by replacing the 4's on the third string, with open notes on the second. For me, it just feels more comfortable.

E E E Q E E E E E E E E E E E E E E E E E E E W
|-------2------2--5-----3-----2---3-----2-----3---0----|
|-----2----2--------1-0---0-1---1-----0-----0---0-2----|
|---2--------2----------------------0-----0-------2----|
|-0---------------0---------------2-----0-----2---2----|
|------------------------------------------------------|
|------------------------------------------------------|

But still not perfect ;)

Playing it like this lets it flow even better:

  E E E Q  E E E  E E E E E E E E E E E E E E E E W
|-------2------2--5-----3-----2---3-----2-----3---0----|
|-----2----2----------0---0-----------0-----0---0-2----|
|---2--------2------5-------5---5---0-----0-------2----|
|-0---------------0---------------2-----0-----2---2----|
|------------------------------------------------------|
|------------------------------------------------------|

Amen, TrangOul, Amen. I've

Amen, TrangOul, Amen. I've done it that way for as long as I've known the piece. I'll check the others and if there's not a version that utilizes partial barres, there soon will be. :D

[edit] there's still a slight discrepancy in my fingering, my bad. I'll have to revisit the original to make sure...anyway..

If you want it to sound like

If you want it to sound like the original...

  E E E Q  E E E  E E E E E E E E E E E E E E E E W
|-------2------2--5-----3-----2---3-----2-----3---0----|
|-----2----2----------0---0-----------0-----0---0-0----|
|---2--------2------5-------5---5---0-----0-------0----|
|-0---------------0---------------2-----0-----0---2----|
|------------------------------------------------------|
|------------------------------------------------------|

and later in the song:

  E E E Q  E E E  E E E Q  E E E  E E E Q  E E E  E E E Q  E E E
|-------3------3--5-----3---------------3---------5-----3--------|
|-----3----3--------3------3---3------3----3---3----3------3---3-|
|---4--------4--------4------4------3--------3--------3------3---|
|-0---------------0---------------0---------------0--------------|
|----------------------------------------------------------------|
|----------------------------------------------------------------|

Damn it, I can't seem to figure out how to change font to make it line up better...Copy paste that^ into the comment thing at the bottom, it will look right.

Use the <.pre> <./pre> tags

Use the <.pre> <./pre> tags to format it :] (without the obvious . )

Or use musenji's tab, which

Or use musenji's tab, which is a more accurate than what you just wrote.