Ads

Ami (Final Fantasy VIII) Guitar Tab

Submitted: Oct 01, 2007 by Stamen47 (Last updated: Sep 16, 2009)

4.923075
Average: 4.9 (13 votes)
Download | Listen
Game: Final Fantasy VIII
Composer(s): Nobuo Uematsu
Style: Arrangement, Fingerstyle
Series: Final Fantasy

AutoScroll: Slow | Medium | Fast
Ami
Final Fantasy 8
Composed by Nobuo Uematsu                            

Guitar
     E  E  E  E  Q    E  E     E  E  E  E  Q.     E
E||--------------0-------4--|--2---------------------|
B||--------2--3-------------|--------3-----3---------|
G||--------4-----2----1-----|-----------4--3---------|
D||-----2-------------------|-----0--4------------0--|
A||--0----------------------|--0---------------------|
E||-------------------------|------------------------|

  E  E  E  E  E  E  E  E     E  E  E  E  E  E  E  E
-----------------------2--|--------0-----0-----------|
--------0--2--3-----------|--4--------0--2--0--------|
--------1--2--4-----------|--------2-----------2-----|
-----2-----------2--------|-----2-----------------2--|
--0-----------------2-----|--0-----------------------|
--------------------------|--------------------------|

  E  E  E  E  E  E  E  E     E  E  E  E  E  E  E  E
--------------0--------4--|--2-----------------------|
--------2--3--------------|--------3-----3-----------|
--------4-----2-----1-----|--------6-----4-----2-----|
-----2-----2-----2-----2--|-----4-----4-----4-----4--|
--0-----------------------|--0-----------------------|
--------------------------|--------------------------|

  E  E  E  E  E  E  E  E     E  E  E  E  E  Q    E     E  E  E  E  E  E  E  E
--------------------------|-------------------------|-----------0--2-----5-----|
--------0--2--3-----------|--0----------------------|--------3--2--0-----------|
--------1--2--4--------1--|--------2-----2----------|-----2-----------2--------|
-----2-----------2--------|-----2-----2-----2----2--|--0--------------------4--|
--------------------2-----|--0----------------------|--------------------------|
--0-----------------------|-------------------------|--------------------------|

  E  E  E  E  E  E  E  E     E  E  E  E  E  E  E  E
--5-----------0-----5-----|--5-----------------2-----|
--------2--3--------------|--------0--2--3-----------|
-----------4--2--1--------|-----------2--4--2--------|
-----2--------------4--2--|-----4--------------4--0--|
--4-----------------------|--2-----------------------|
--------------------------|--------------------------|

  E  E  E  E  E  E  E  E     E  E  E  E  E  E  E  E
--------0-----9-----------|-----------0--2-----5-----|
--4--------0--------------|--------3--2--0-----------|
--------2--------6--------|-----2-----------2--------|
-----2--------7-----7--2--|--0--------------------4--|
--0-----------------------|--------------------------|
--------------------------|--------------------------|

  E  E  E  E  E  E  E  E     E  E  E  E  E  E  E  E     E  E  E  E  Q    Q
--5-----------0-----5-----|--5--------5--4-----------|--0---------------------|
--------2--3--------------|--------------------7-----|--------3-----2----0----|
-----------4--2--1--------|--------5--8-----------4--|-----------2--1---------|
-----2--------------4-----|-----6-----------4--6-----|--------2---------------|
--4--------------------7--|--------------------------|-----2------------------|
--------------------------|--8-----------4-----------|--0---------------------|

  E  E  E  E  E  E  E  E     E  E  E  E  E  E  E  E
--------0--1--3--------7--|--5-----------------------|
--------3-----1-----0-----|--------6-----6-----------|
-----0-----0-----0-----0--|--------5-----5-----5-----|
--------------------------|-----7-----7-----7-----7--|
--3-----------------------|--------------------------|
--------------------------|--8-----------------------|

  E  E  E  E  E  E  E  E     E  E  E  E  E  E  E  E
-----------0--1--------5--|--2-----3-----3-----------|
--------3-----3-----3-----|--------5-----5-----5-----|
-----4-----4-----4-----4--|-----0-----0-----0-----0--|
--------------------------|--------------------------|
--3-----------------------|--3-----------------------|
--------------------------|--------------------------|

  E  E  E  E  E  E  E  E     E  E  E  E  E  E  E  E
--------0--1--3--------7--|--5-----------------------|
--------1-----------0-----|--------6-----6-----------|
-----0-----0--2--0-----0--|--------9-----7-----5-----|
--------------------------|-----7-----7-----7-----7--|
--3-----------------------|--------------------------|
--------------------------|--8-----------------------|

  E  E  E  E  E  E  E  E     E  E  E  E  E  E  E  E
-----------0--1-----------|--------------------------|
--------3-----3-----3-----|--3-----1-----1-----------|
-----4-----4-----4-----4--|--------0-----0-----0-----|
--------------------------|-----2-----2-----2-----2--|
--3-----------------------|--3-----------------------|
--------------------------|--------------------------|

  E  E  E  E  E  E  E  E     E  E  E  E  E  E  E  E
--------5-----5-----5-----|--------5-----5-----5-----|
--------6-----6-----6-----|--------6-----6-----6-----|
--------9-----7-----5-----|--------9-----7-----5-----|
--------------------------|--------------------------|
--8--8-----8-----8-----8--|--8--8-----8-----8-----8--|
--------------------------|--------------------------|

  E  E  E  E  E  E  E  E     E  E  E  Q    Q    E     E  E  E  E  E  E  E  E
--------5-----5-----5-----|--5--5-----5------------|--------5-----5-----5-----|
--------6-----6-----6-----|--6--6--3--6------------|--------6-----6-----6-----|
--------9-----7-----5-----|--4--5-----5------------|--------9-----7-----5-----|
--------------------------|--3--3-----3----3----3--|--------------------------|
--8--8-----8-----8-----8--|------------------------|--8--8-----8-----8-----8--|
--------------------------|------------------------|--------------------------|

  E  E  E  E  E  E  E  E     E  E  E  E  E  E  E  E     E  E  E  Q    Q    E
--------5-----5-----5-----|--------5-----5-----5-----|--5--5-----5------------|
--------6-----6-----6-----|--------6-----6-----6-----|--6--6--3--6------------|
--------9-----7-----5-----|--------9-----7-----5-----|--4--5-----5------------|
--------------------------|--------------------------|--3--3-----3----3----3--|
--8--8-----8-----8-----8--|--8--8-----8-----8-----8--|------------------------|
--------------------------|--------------------------|------------------------|

   E  Q    Q    Q    E      E   Q     Q     Q     E     E  E  E  E  E  Q    E
---9--------------------|--12------------------------|--7----------------------|
--10--------------------|--12------------------------|--7-----9-----9----------|
---9--------------------|--13------------------------|--8-----9-----9----------|
------7----7----7----7--|----------------------------|--------9-----9----------|
---0--------------------|---0--12----12----12----12--|-----7-----7-----7----7--|
------------------------|----------------------------|--0----------------------|

  E  Q    Q    Q    E      E  Q    Q    Q    E      E   Q     Q     Q     E
-----------------------|---9--------------------|--12------------------------|
-----------------------|--10--------------------|--12------------------------|
-----------------------|---9--------------------|--13------------------------|
-----------------------|------7----7----7----7--|----------------------------|
-----7----7----7----7--|---0--------------------|---0--12----12----12----12--|
--0--------------------|------------------------|----------------------------|

  E  E  E  E  E  Q    E     W                   Q    E  E  E  E  E  E
--9-----7-----7----------|-------------------|-------2--3--5--3--2--0--|
--7-----7-----7----------|-------------------|-------0-----0-----------|
--8-----8-----8----------|-------------------|-------0-----0-----------|
--6--6-----6-----6----6--|-------------------|-------4-----2-----0-----|
-------------------------|-------------------|-------------------------|
-------------------------|--4----------------|--3----------------------|

  E  E  Q    Q    E  E     E  E  E  E  Q    E  E     E  E  E  Q    Q    E
-----3---------------0--|-------------------------|------------------------|
--3-----0---------3-----|--3--1--0-----0----------|------------------------|
--------0----0----------|--------0--2--0----------|------------------------|
--------4----2----0-----|--------4-----2----0--0--|-----0--2--0----0----0--|
------------------------|-------------------------|--4--------2------------|
--3---------------------|--3----------------------|--3--------3------------|

  Q    E  E  E  E  E  E     E  E  Q    Q    E  E     E  E  E  E  Q    E  E
----------0--2--0--------|-----0------------------|-------------------------|
-------4-----2-----4--2--|--0---------------0--2--|--0-------------------0--|
-------1-----1-----------|--------1---------------|-----2--1-----1----------|
-------2-----2-----------|--------2----1----------|--------1--4-------------|
-------------------2-----|------------------2-----|--------------4----2-----|
--0----------------------|--0---------------------|--0----------------------|

  E  E  E  E  E  E  E  E
---------------------------||
-----------------------0---||
--------------------------*||
--------------4--1--2-----*||
-----2--1--2---------------||
--0------------------------||

Duration Legend
---------------
W - whole
H - half
Q - quarter
E - 8th
S - 16th
T - 32nd
X - 64th
. - note dotted
|-n-|  - n-tuplets
Login or Register to remove this ad.

9 comments on Ami

Hah, this rulez too. Good

Hah, this rulez too. Good job. :3

good job dude. really good

5

good job dude. really good

Awesome TAB

5

After you learn Archard's version then it will be time to take it to the next Lv with this sweet TAB lol

=D

where?

what part of the game does this song plays?

hard but exellent

hard but exellent

here's something I should have thought of three years ago...

I was just playing through this for old times sakes, and I realized that the part like this:

 E  E  E  E  E  E  E  E     E  E  E  E  E  E  E  E
--------5-----5-----5-----|--------5-----5-----5-----|
--------6-----6-----6-----|--------6-----6-----6-----|
--------9-----7-----5-----|--------9-----7-----5-----|
--------------------------|--------------------------|
--8--8-----8-----8-----8--|--8--8-----8-----8-----8--|
--------------------------|--------------------------|

isn't only cruel, but would be more accurate written like this:

 E  E  E  E  E  E  E  E     
--------0-----------------|
--------1-----3-----1-----|
--------2-----2-----2-----|
-----3-----3-----3-----3--|
--------------------------|
--1-----------------------|

because the song goes down to the F from the preceding C chord, not up like I have it in my original tab.

So, there's one out of about a thousand things I should go back and change in my old tabs. I'll try to get around to the other 999 if I can find the time eventually.

nice change

5

i was thinking there must be a better way to play that part. You're amazing man, this tab is beautiful. i need to like, take lessons from you :P

stamen

5

hahah cruel was exactly the word i was looking for---
to be honest though, those original chords produce a nice defining effect
if you can make that reach of course

Spectacular.

5

Spectacular.