Ads

You Can Hear the Cry of the Planet (Final Fantasy VII) Guitar Tab

Submitted: Oct 01, 2007 by archard

5
Average: 5 (3 votes)
Download | Listen
Game: Final Fantasy VII
Composer(s): Nobuo Uematsu
Style: Transcription
Series: Final Fantasy

AutoScroll: Slow | Medium | Fast
You Can Hear the Cry of the Planet
Final Fantasy 7
Composed by Nobuo Uematsu

4/24/07

This is what repeats in the background for literally the whole song.

e---------------
B------3--------
G----2---3-0-2--
D--0------------
A---------------
E---------------

String Synth (begins at about 23 seconds)

e--3----------1----------0---3-----1------
B--3----------3------------------------3--
G--2----------2---------------------------
D-----------------------------------------
A-----------------------------------------
E-----------------------------------------

Then once more at about 50 seconds

e-------------0---3-----1------
B--3------------------------3--
G------------------------------
D------------------------------
A------------------------------
E------------------------------

And then at about 1:15

e---------------------------
B--3----------1----------0--
G---------------------------
D---------------------------
A---------------------------
E---------------------------

e---------------------------
B--3----------1----------3--
G---------------------------
D---------------------------
A---------------------------
E---------------------------

End String Synth

This part comes in at about 35 seconds. You might want to use a palm mute.

e-------------------------
B-------10-11----10-------
G-------------12------10--
D--12---------------------
A-------------------------
E-------------------------

This part comes in at about 1:16

e-----------12-10--
B-----10-11--------
G------------------
D--12--------------
A------------------
E------------------ x4

e-----------13-10--
B-----10-12--------
G------------------
D--12--------------
A------------------
E------------------ x4

e-----------12-10--
B-----10-11--------
G------------------
D--12--------------
A------------------
E------------------ x8
Login or Register to remove this ad.

1 comment on You Can Hear the Cry of the Planet

thanks for this tab love

thanks for this tab love this tune so sad