Who Are You? (Final Fantasy VII) Guitar Tab

Submitted: Aug 09, 2006 by archard (Last updated: Jul 20, 2008)

4.75
Average: 4.8 (4 votes)
Download | Listen
Game: Final Fantasy VII
Composer(s): Nobuo Uematsu
Style: Transcription
Series: Final Fantasy

AutoScroll: Slow | Medium | Fast
Who Are You?
Final Fantasy 7
Composed by Nobuo Uematsu

8/10/06

e------5-------5-------5-------5--
B--2-3---3-2-3---3-2-3---3-2-3---3
G---------------------------------
D---------------------------------
A---------------------------------
E---------------------------------

e------3-------3-------3-------3--
B--0-1---1-0-1---1-0-1---1-0-1---1
G---------------------------------
D---------------------------------
A---------------------------------
E--------------------------------- Repeat the first 2

e------3-------3-------3-------3--
B---------------------------------
G--2-3---3-2-3---3-2-3---3-2-3---3
D---------------------------------
A---------------------------------
E---------------------------------

e------2-------2-------2-------2--
B--0-1---1-0-1---1-0-1---1-0-1---1
G---------------------------------
D---------------------------------
A---------------------------------
E---------------------------------

e------5-------5-------5-------5--
B--2-3---3-2-3---3-2-3---3-2-3---3
G---------------------------------
D---------------------------------
A---------------------------------
E---------------------------------
Login or Register to remove this ad.

6 comments on Who Are You?

Sounds good.

Sounds good.

Nice :D

Nice :D

nice work archard, but I

nice work archard, but I think you missed a note on each...

e-----------5--------5---------5---------5--
B--2--2-3---3-2-3---3-2-3---3-2-3---3
G---------------------------------------------
D---------------------------------------------
A---------------------------------------------
E---------------------------------------------

e-----------3--------3---------3---------3--
B--0--0-1---1-0-1---1-0-1---1-0-1---1
G---------------------------------------------
D---------------------------------------------
A---------------------------------------------
E--------------------------------------------- Repeat the first 2

e-----------3--------3---------3---------3--
B---------------------------------------------
G--2--2-3---3-2-3---3-2-3---3-2-3---3
D---------------------------------------------
A---------------------------------------------
E---------------------------------------------

e-----------2--------2---------2---------2--
B--0--0-1---1-0-1---1-0-1---1-0-1---1
G---------------------------------------------
D---------------------------------------------
A---------------------------------------------
E---------------------------------------------

e-----------5--------5---------5---------5--
B--2--2-3---3-2-3---3-2-3---3-2-3---3
G---------------------------------------------
D---------------------------------------------
A---------------------------------------------
E---------------------------------------------

sounds better to me this way =\

It's jut the sound effect

It's jut the sound effect that makes it sound like it repeats a note.

If you play it with a little

If you play it with a little delay it sounds perfect. Scarily perfect. Amusingly enough I find the ideal delay time to be about 666 milliseconds.

i was thinking it was missing stuff too, but no

i was curious as well, so i checked it out in widi and yeah, it's just an echo so that if each of richard's notes were quarter notes, the timing of the delay is quarter dotted (quarter + eighth).
this makes it sound like 8th notes are being played (except the first of the section) when it's just quarter notes.
a cool effect for a well made song. and a good tab too, thanks for this!