Victory Fanfare (Final Fantasy VII) Guitar Tab

Submitted: Oct 01, 2007 by archard

4.30769
Average: 4.3 (13 votes)
Download | Listen
Game: Final Fantasy VII
Composer(s): Nobuo Uematsu
Style: Transcription
Series: Final Fantasy

AutoScroll: Slow | Medium | Fast
Victory Fanfare
Final Fantasy VII
Composed by Nobuo Uematsu


7/15/06

e------------------------
B--1-1-1-1----------1---1
G-----------1---3-----3--
D------------------------
A------------------------
E------------------------

e--------------------------------
B----------4-4-3-4-3--3----------
G--5-3-5-3--------------5-3-1-3-0
D--------------------------------
A--------------------------------
E--------------------------------

e-------------------------------1
B----------4-4-3-4-3--3-------4--
G--5-3-5-3--------------5-3-5----
D--------------------------------
A--------------------------------
E--------------------------------
Login or Register to remove this ad.

19 comments on Victory Fanfare

Had some trouble googleing

Had some trouble googleing up a tab for this song. Finally made it here.
I really like it, especially with the midi file with it.
Thanks ;)

its

its wrong

e----------------------------------
B---------x-4-4-3-3-4-3--3---------
G-5-3-5-3-----------------5-3-1-3-0
D----------------------------------
A----------------------------------
E----------------------------------

In the 2nd bar, I think(not

In the 2nd bar, I think(not sure myself) that instead of the G# before the G is should be an A. either way,great tab ^^

Umm, in case some of you

Umm, in case some of you didn't know this,but this is the gold saucer victory fanfare when you win a mini game not the actual battle victory fanfare :).

Xile is right! Play any of

Xile is right! Play any of the mini-games in Gold Saucer and win in them and you here that, not the battle victory fanfare!

Great i greet you all

Great

i greet you all people all over Spira :P

wrong game.

wrong game.

Just like Xile or FFFAN said

Just like Xile or FFFAN said it's not FFVII but FFXIX victory fanfare

Thought it was really good

Thought it was really good but the last note was a bit off i think

could it b tht ur guitar's

could it b tht ur guitar's out of tune lol

It's actually the fanfare

5

It's actually the fanfare from the old Final Fantasy games. FF7 gives homage to it when you beat the minigames.

sweet, now any time i happen

5

sweet, now any time i happen to have a guitar with me and something cool happens im going to play this!To bad only my nerd freinds will get it:(

same here

Yea me too

No.

This is the classic victory fanfare. The VII fanfare, after the -1---1--
---3----,

Gets a lot faster and has 5 notes in a row. I'm not sure how to better describe it, but anyone who's played it knows what I mean.

good 1 string version

e-5-5-5-5--0--3--5-3-5-
B----------------------
G----------------------
D----------------------
A----------------------
E----------------------

e-5-3-5-3-8--8-7-8-7--5-3-2-3-0---
B---------------------------------
G---------------------------------
D---------------------------------
A---------------------------------
E---------------------------------

e-5-3-5-3-8--8-7-8-7--5-3-5-8-10--
B---------------------------------
G---------------------------------
D---------------------------------
A---------------------------------
E---------------------------------

wow

the forum chops it up a lil but you guys can figure it out

can we get the REAL FF7

can we get the REAL FF7 FANFARE NOT THE GOLDEN SAUCER THE ORIGINAL BATTLE FANFARE IN FF7 WAS THE BEST 1 BY FAR....

Thanks

4

I'll have to play this after doing even the most menial task...like this comment.

this isnt the final fantasy 7

this isnt the final fantasy 7 fanfare. its this
https://www.youtube.com/watch?v=eIRyeECkUxU