Cosmo Canyon (Final Fantasy VII) Guitar Tab

Submitted: Jul 16, 2006 by archard (Last updated: Dec 04, 2010)

3.857145
Average: 3.9 (7 votes)
Download | Listen
Game: Final Fantasy VII
Composer(s): Nobuo Uematsu
Style: Transcription
Series: Final Fantasy

This song is also called Valley of the Fallen Star

AutoScroll: Slow | Medium | Fast
Valley of the Fallen Star
Final Fantasy VII
Composed by Nobuo Uematsu


7/17/06

This song is actually meant to be played higher,
but I like the way it sounds like this.

e-------------------------------------------------------------------
B-------------------------------------------------------------------
G------------0---0-2-0-4-4-4-2-0-2-4---2-0-2-4---0-----------0------
D--2-2-2-0-2---------------------------------------2-2-----0---2-0-2
A-------------------------------------------------------------------
E-------------------------------------------------------------------

e-------------------------------------------------------------------------
B-------------------------------------------------------------------------
G-----------------0---0-2-0-4-4-4-2-0-2-4---2-0-2-4---0------------0------
D----0--2-2-2-0-2---------------------------------------2-2------0---2-0-2
A--2----------------------------------------------------------------------
E-------------------------------------------------------------------------

e---------------------------------------
B---------------------------------------
G--------------------------------0------
D----0--2-2-2-4-2-0-------0--2-2---4-2-0
A--2--------------------2---------------
E---------------------------------------

e-----------------------------
B-----------------------------
G-----------------------------
D------------------------0----
A--0-----0-2-----3---2-3-----2
E------3----------------------

e---------------------------------------
B---------------------------------------
G--------------------------------0------
D----0--2-2-2-4-2-0-------0--2-2---4-2-0
A--2--------------------2---------------
E---------------------------------------

e----------------------------------------------
B----------------------------------------------
G---------------------------------------0------
D------------------------0---2------------2---2
A--0-----0-2-----3---2-3-----------------------
E------3---------------------------------------

Repeat from beginning
Login or Register to remove this ad.

9 comments on Cosmo Canyon

This is really amazing. You

This is really amazing. You did an awesome job on this tab. Thanks a lot =D

This is Cosmo Canyon

This is Cosmo Canyon dude...same damn thing...but rocks !!!!!!!!!!

actually dude, its called

5

actually dude, its called this on the official Final Fantasy 7 OST, but an easy mistake to make.

actually your all wrong its

actually your all wrong
its called the valley of the fallen star
peace out dudes

actually,

who gives a shit about what its called? Do all of you have to try and one-up each other and think that you're always right?

Actually, it's called

Actually, it's called BOTH.

One is the name from the Japanese version "Valley of the Fallen Star," the other is the version after it was localized for the american release, "Cosmo Canyon."

Things change during translation and localization, just like Aerith became Aeris for the US audience.

you tell em kabuki

you tell em kabuki

Who cares? Sounds great

Who cares? Sounds great though!

I just changed all the

I just changed all the 'Valley of the Fallen Star' tabs to 'Cosmo Canyon'. Not because it's more accurate or anything, but for consistency.
From now on I'll do that whenever I come across tabs for songs that go under different names. All the mods are invited to join and help with that. =)