Turks' Theme (Final Fantasy VII) Guitar Tab

Submitted: Oct 01, 2007 by archard

4
Average: 4 (3 votes)
Download | Listen
Game: Final Fantasy VII
Composer(s): Nobuo Uematsu
Style: Transcription
Series: Final Fantasy

AutoScroll: Slow | Medium | Fast
Turk's Theme
Final Fantasy VII
Composed by Nobuo Uematsu

8/12/06

This song really just contains 3 groups of 3 notes
played in succession. And the 3 groups are:

e-----------
B-----------
G-----------
D----------0 <-- Group 1
A--0---3----
E-----------

e-----------
B-----------
G----------0
D--0---3---- <-- Group 2
A-----------
E-----------

e-----------
B-----------
G------0---2
D--2-------- <-- Group 3
A-----------
E-----------

And they go in this order:

Group 1

Group 2

Group 1

Group 3

Group 1

Repeat
Login or Register to remove this ad.

2 comments on Turks' Theme

Badass

Badass

i agree i loved this theme

5

i agree i loved this theme back then and i still love it :D 5 stars