Those Chosen by the Planet (Final Fantasy VII) Guitar Tab

Submitted: Oct 01, 2007 by archard

4.166665
Average: 4.2 (6 votes)
Download | Listen
Game: Final Fantasy VII
Composer(s): Nobuo Uematsu
Style: Transcription
Series: Final Fantasy

AutoScroll: Slow | Medium | Fast
Those Chosen by the Planet
Final Fantasy VII
Composed by Nobuo Uematsu


7/15/06

e---------------------------------------
B---------------------------------------
G--2-1-3----------2-2-1----------2-1-3-2
D---------------------------------------
A---------------------------------------
E---------------------------------------

e---------------------------------------
B---------------------------------------
G---------------------------------------
D--1-------------4------------------0---
A---------------------------------------
E---------------------------------------

e---------------------------------------
B---------------------------------------
G--2-1-3----------2-2-1----------2-1-3-2
D---------------------------------------
A---------------------------------------
E---------------------------------------

e---------------------------------------
B---------------------------------------
G-----------------------------------2---
D--1-------------4----------------------
A---------------------------------------
E---------------------------------------
Login or Register to remove this ad.

1 comment on Those Chosen by the Planet

I like it,

3

but very short, and it should be played acoustic I think.