Ads

Temple of the Ancients (Final Fantasy VII) Guitar Tab

Submitted: Feb 06, 2008 by Zelos (Last updated: Mar 24, 2008)

5
Average: 5 (5 votes)
Download | Listen
Game: Final Fantasy VII
Composer(s): Nobuo Uematsu
Style: 2 or more instruments, Arrangement
Series: Final Fantasy

AutoScroll: Slow | Medium | Fast
Temple of Ancients                                 
~Final Fantasy VII~
Composed by: Nobuo Uematsu
Arranged by: Zelos

Guitar I
BPM = 120

      Q     Q     H           W                    Q     Q     H         
E||--10----11----12--------|-------------------|--10----11----12--------|
B||------------------------|-------------------|------------------------|
G||------------------------|-------------------|------------------------|
D||------------------------|-------------------|------------------------|
A||------------------------|-------------------|------------------------|
E||------------------------|-------------------|------------------------|


          E  E  E  E  E.  T T S. T S. T    Q    E  E  Q.     S. T  
-------|--5--4--3--2--1---L---0----0----|--8----5-----5------L----|
-------|--------------------------------|-------------------------|
-------|--------------------------------|-------------------------|
-------|--------------------------------|-------------------------|
-------|--------------------------------|-------------------------|
-------|--------------------------------|-------------------------|


   E.  T T  E   S.T  Q     E   S.T     E  E  E  E   Q.     S. T  
--12---L---------------------------|---------8------------------|
-----------10--12---13----12--10---|---------------10------L----|
-----------------------------------|--10--9---------------------|
-----------------------------------|----------------------------|
-----------------------------------|----------------------------|
-----------------------------------|----------------------------|


  E  E  E  E  Q    S. T S. T    Q    E  E  H           E  E  E  E  H         
--5--4--3--2--1----0----0----|--8----5-----5--------|--3-----4-----5--------|
-----------------------------|----------------------|-----------------------|
-----------------------------|----------------------|-----------------------|
-----------------------------|----------------------|-----------------------|
-----------------------------|----------------------|-----------------------|
-----------------------------|----------------------|-----------------------|


  E  E  E  E  H            Q     Q     H           W                 
-----------------------|--10----11----12--------|-------------------|
-----------------------|------------------------|-------------------|
--0-----1-----2--------|------------------------|-------------------|
-----------------------|------------------------|-------------------|
-----------------------|------------------------|-------------------|
-----------------------|------------------------|-------------------|


   Q     Q     H                   E  E  E  E  E.  T T S. T S. T  
--10----11----12--------|-------|--5--4--3--2--1---L---0----0----|
------------------------|-------|--------------------------------|
------------------------|-------|--------------------------------|
------------------------|-------|--------------------------------|
------------------------|-------|--------------------------------|
------------------------|-------|--------------------------------|


  Q    E  E  Q.     S. T     E.  T T  E   S.T  Q     E   S.T  
--8----5-----5------L----|--12---L---------------------------|
-------------------------|-----------10--12---13----12--10---|
-------------------------|-----------------------------------|
-------------------------|-----------------------------------|
-------------------------|-----------------------------------|
-------------------------|-----------------------------------|


   E  E  E  E   Q.     S. T    E  E  E  E  Q    S. T S. T  
---------8------------------|--5--4--3--2--1----0----0----|
---------------10------L----|-----------------------------|
--10--9---------------------|-----------------------------|
----------------------------|-----------------------------|
----------------------------|-----------------------------|
----------------------------|-----------------------------|


  Q    E  E  H           E  E  E  E  H           E  E  E  E  H         
--8----5-----5--------|--3-----4-----5--------|-----------------------|
----------------------|-----------------------|-----------------------|
----------------------|-----------------------|--0-----1-----2--------|
----------------------|-----------------------|-----------------------|
----------------------|-----------------------|-----------------------|
----------------------|-----------------------|-----------------------|


  Q    Q     Q     Q        Q    Q     Q     Q       Q    Q    Q    Q     
------------------12----|-------------------------|-----------------8----|
------------------------|--13---------------------|----------------------|
-------9----------------|--------9----------------|-------5--------------|
------------10----------|-------------10----------|------------7---------|
------------------------|-------------------------|----------------------|
------------------------|-------------------12----|--8-------------------|


   Q    Q    Q    Q       Q    Q     Q     Q        Q    Q     Q    Q     
-----------------------|------------------12----|------------------------|
--10-------------------|------------------------|--13--------------------|
--------5--------------|-------9----------------|--------9---------------|
-------------7---------|------------10----------|-------------10---------|
-----------------------|------------------------|------------------------|
------------------8----|--5---------------------|-------------------8----|


  Q    Q    Q    Q        Q    Q    Q    S S S S     E   E  E   E  E  E  E  E   
-----------------8----|--------------------------|-----------------------------|
----------------------|--10----------------------|-----------------------------|
-------5--------------|--------5-----------------|-----------------------------|
------------7---------|-------------7------------|--12--10--9--10--9--7--5--7--|
----------------------|------------------0-2-3-4-|-----------------------------|
--5-------------------|--------------------------|-----------------------------|


  W                   E  E  E  E  H           W                 
-------------------|--5--3--2--3--5--------|--L----------------|
-------------------|-----------------------|-------------------|
-------------------|-----------------------|-------------------|
--4----------------|-----------------------|-------------------|
-------------------|-----------------------|-------------------|
-------------------|-----------------------|-------------------|


   E   E   E   E   H           W                    E  E  E  E  E   E  E   E   
--17--15--14--15--17--------|--L----------------|--10--8--7--8--7-------------|
----------------------------|-------------------|------------------10--8--10--|
----------------------------|-------------------|-----------------------------|
----------------------------|-------------------|-----------------------------|
----------------------------|-------------------|-----------------------------|
----------------------------|-------------------|-----------------------------|


  H.           E.  T T     E  E  E  E  H           W                 
---------------L---L---|------------------------|-------------------|
--7--------------------|--10--8--6--5--3--------|--L----------------|
-----------------------|------------------------|-------------------|
-----------------------|------------------------|-------------------|
-----------------------|------------------------|-------------------|
-----------------------|------------------------|-------------------|


  H.           E.  T T    H.           S S S S    E  E  E  E  H         
-----------------------|-----------------------|-----------------------|
--L------------L---L---|-----------------------|--------0--2--3--------|
-----------------------|---------------------0-|--2--0-----------------|
-----------------------|---------------0-2-3---|-----------------------|
-----------------------|-----------------------|-----------------------|
-----------------------|-----------------------|-----------------------|


  W                   W                   H.           E.  S   
-------------------|-------------------|---------------------||
--L----------------|--L----------------|--L------------L-----||
-------------------|-------------------|---------------------||
-------------------|-------------------|---------------------||
-------------------|-------------------|---------------------||
-------------------|-------------------|---------------------||




Duration Legend
---------------
W - whole
H - half
Q - quarter
E - 8th
S - 16th
T - 32nd


Tablature Legend
----------------
L - tied note








--------------------------------------------------------------









Guitar II

BPM = 120

     E  E  E  E  E  E  E  E     E  E  E  E  E  E  E  E   
E||--------------------------|--------------------------|
B||-----------0-----------1--|-----------2-----------1--|
G||--------0-----------0-----|--------0-----------0-----|
D||-----2-----------2--------|-----2-----------2--------|
A||--------------------------|--------------------------|
E||--0-----------0-----------|--0-----------0-----------|


  E  E  E  E  E  E  E  E     E  E  E  E  E  E  E  E   
--------------------------|--------------------------|
-----------0-----------1--|-----------2-----------1--|
--------0-----------0-----|--------0-----------0-----|
-----2-----------2--------|-----2-----------2--------|
--------------------------|--------------------------|
--0-----------0-----------|--0-----------0-----------|


  E  E  E  E  E  E  E  E     E  E  E  E  E  E  E  E   
--------------------------|--------------------------|
-----------1-----------1--|-----------1-----------1--|
--------2-----------2-----|--------2-----------2-----|
-----2-----------3--------|-----4-----------3--------|
--0-----------0-----------|--0-----------0-----------|
--------------------------|--------------------------|


  E  E  E  E  E  E  E  E     E  E  E  E  E  E  E  E   
--------------------------|--------------------------|
-----------1-----------1--|-----------1-----------1--|
--------2-----------2-----|--------2-----------2-----|
-----2-----------3--------|-----4-----------3--------|
--0-----------0-----------|--0-----------0-----------|
--------------------------|--------------------------|


  E  E  E  E  E  E  E  E     E  E  E  E  E  E  E  E   
--------------------------|--------------------------|
-----------1-----------1--|-----------1-----------1--|
--------2-----------2-----|--------2-----------2-----|
-----2-----------3--------|-----4-----------3--------|
--0-----------0-----------|--0-----------0-----------|
--------------------------|--------------------------|


  E  E  E  E  E  E  E  E     E  E  E  E  E  E  E  E   
--------------------------|--------------------------|
-----------1-----------1--|-----------1-----------1--|
--------2-----------2-----|--------2-----------2-----|
-----2-----------3--------|-----4-----------3--------|
--0-----------0-----------|--0-----------0-----------|
--------------------------|--------------------------|


  E  E  E  E  E  E  E  E     E  E  E  E  E  E  E  E   
--------------------------|--------------------------|
-----------0-----------1--|-----------2-----------1--|
--------0-----------0-----|--------0-----------0-----|
-----2-----------2--------|-----2-----------2--------|
--------------------------|--------------------------|
--0-----------0-----------|--0-----------0-----------|


  E  E  E  E  E  E  E  E     E  E  E  E  E  E  E  E   
--------------------------|--------------------------|
-----------0-----------1--|-----------2-----------1--|
--------0-----------0-----|--------0-----------0-----|
-----2-----------2--------|-----2-----------2--------|
--------------------------|--------------------------|
--0-----------0-----------|--0-----------0-----------|


  E  E  E  E  E  E  E  E     E  E  E  E  E  E  E  E   
--------------------------|--------------------------|
-----------1-----------1--|-----------1-----------1--|
--------2-----------2-----|--------2-----------2-----|
-----2-----------3--------|-----4-----------3--------|
--0-----------0-----------|--0-----------0-----------|
--------------------------|--------------------------|


  E  E  E  E  E  E  E  E     E  E  E  E  E  E  E  E   
--------------------------|--------------------------|
-----------1-----------1--|-----------1-----------1--|
--------2-----------2-----|--------2-----------2-----|
-----2-----------3--------|-----4-----------3--------|
--0-----------0-----------|--0-----------0-----------|
--------------------------|--------------------------|


  E  E  E  E  E  E  E  E     E  E  E  E  E  E  E  E   
--------------------------|--------------------------|
-----------1-----------1--|-----------1-----------1--|
--------2-----------2-----|--------2-----------2-----|
-----2-----------3--------|-----4-----------3--------|
--0-----------0-----------|--0-----------0-----------|
--------------------------|--------------------------|


  E  E  E  E  E  E  E  E     E  E  E  E  E  E  E  E   
--------------------------|--------------------------|
-----------1-----------1--|-----------1-----------1--|
--------2-----------2-----|--------2-----------2-----|
-----2-----------3--------|-----4-----------3--------|
--0-----------0-----------|--0-----------0-----------|
--------------------------|--------------------------|


  E  E  E  E  E  E  E  E     E  E  E  E  E  E  E  E   
--------------------------|--------------------------|
-----------1-----------1--|-----------1-----------1--|
--------2-----------2-----|--------2-----------2-----|
-----2-----------3--------|-----4-----------3--------|
--0-----------0-----------|--0-----------0-----------|
--------------------------|--------------------------|


  E  E  E  E  E  E  E  E     E  E  E  E  E  E  E  E   
--------------------------|--------------------------|
-----------1-----------1--|-----------1-----------1--|
--------2-----------2-----|--------2-----------2-----|
-----2-----------3--------|-----4-----------3--------|
--0-----------0-----------|--0-----------0-----------|
--------------------------|--------------------------|


  E  E  E  E  E  E  E  E     E  E  E  E  E  E  E  E   
--------------------------|--------------------------|
-----------1-----------1--|-----------1-----------1--|
--------2-----------2-----|--------2-----------2-----|
-----2-----------3--------|-----4-----------3--------|
--0-----------0-----------|--0-----------0-----------|
--------------------------|--------------------------|


  E  E  E  E  E  E  E  E     E  E  E  E  E  E  E  E   
--------------------------|--------------------------|
-----------1-----------1--|-----------1-----------1--|
--------2-----------2-----|--------2-----------2-----|
-----2-----------3--------|-----4-----------3--------|
--0-----------0-----------|--0-----------0-----------|
--------------------------|--------------------------|


  E  E  E  E  E  E  E  E     E  E  E  E  E  E  E  E   
--------------------------|--------------------------|
-----------0-----------0--|-----------0-----------0--|
--------0-----------0-----|--------0-----------0-----|
-----0-----------2--------|-----4-----------2--------|
--------------------------|--------------------------|
--3-----------3-----------|--3-----------3-----------|


  E  E  E  E  E  E  E  E     E  E  E  E  E  E  E  E   
-----------2-----------2--|-----------2-----------2--|
--------3-----------3-----|--------3-----------3-----|
-----2-----------3--------|-----4-----------3--------|
--0-----------0-----------|--0-----------0-----------|
--------------------------|--------------------------|
--------------------------|--------------------------|


  E  E  E  E  E  E  E  E     E  E  E  E  E  E  E  E   
-----------2-----------2--|-----------2-----------2--|
--------3-----------3-----|--------3-----------3-----|
-----2-----------3--------|-----4-----------3--------|
--0-----------0-----------|--0-----------0-----------|
--------------------------|--------------------------|
--------------------------|--------------------------|


  E  E  E  E  E  E  E  E     E  E  E  E  E  E  E  E   
--------------------------|--------------------------|
-----------0-----------0--|-----------0-----------0--|
--------0-----------0-----|--------0-----------0-----|
-----0-----------2--------|-----4-----------2--------|
--------------------------|--------------------------|
--3-----------3-----------|--3-----------3-----------|


  E  E  E  E  E  E  E  E     E  E  E  E  E  E  E  E   
-----------1-----------1--|-----------1-----------1--|
--------3-----------3-----|--------3-----------3-----|
-----2-----------3--------|-----4-----------3--------|
--0-----------0-----------|--0-----------0-----------|
--------------------------|--------------------------|
--------------------------|--------------------------|


  E  E  E  E  E  E  E  E     E  E  E  E  E  E  E  E   
-----------1-----------1--|-----------1-----------1--|
--------3-----------3-----|--------3-----------3-----|
-----2-----------3--------|-----4-----------3--------|
--0-----------0-----------|--0-----------0-----------|
--------------------------|--------------------------|
--------------------------|--------------------------|


  E  E  E  E  E  E  E  E     E  E  E  E  E  E  E  E   
-----------1-----------1--|-----------1-----------1--|
--------3-----------3-----|--------3-----------3-----|
-----2-----------3--------|-----4-----------3--------|
--0-----------0-----------|--0-----------0-----------|
--------------------------|--------------------------|
--------------------------|--------------------------|


  E  E  E  E  E  E  E  E     E  E  E  E  E  E  E  E    
-----------1-----------1--|-----------1-----------1--||
--------3-----------3-----|--------3-----------3-----||
-----2-----------3--------|-----4-----------3--------||
--0-----------0-----------|--0-----------0-----------||
--------------------------|--------------------------||
--------------------------|--------------------------||




Duration Legend
---------------
E - 8th
Login or Register to remove this ad.

3 comments on Temple of the Ancients

Heh, nice.

5

Heh, nice.

this tab is called well the

5

this tab is called well the name of the song (btw amazing tab:)) is called the forested tample i was looking for the temple of the ancients in my media player library and was like erm o.k not there and then played through all of them and it was called the forested temple love it:)

This is a metallica cover~

Look at the last riff. The first 12 notes are directly copied from the Call of Cthulu from Metallica's 1984 album Ride the Lightning. I like that Squaresoft used a Metallica song to write this theme.