Ads

Sleep My Sephy (Final Fantasy VII) Guitar Tab

Submitted: Oct 31, 2007 by ajrock2000 (Last updated: Nov 08, 2007)

5
Average: 5 (8 votes)
Download | Listen
Game: Final Fantasy VII
Composer(s): Nobuo Uematsu
Style: 2 or more instruments
Series: Final Fantasy

AutoScroll: Slow | Medium | Fast
                                 SLEEP, MY SEPHY
                            As recorded by Pot Hocket
                        (From the 2007 Album FF7 OCREMIX)

Music by Nobuo Uemetsu
Arranged by ajrock2000

Gtr I (E A D G B E) - 'Backup Guitar'
Gtr II (E A D G B E) - 'Lead'

  Q=125
  Gtr I
  E E E E E E E E   E E E E E E E E   E S S E E E E E E    E E E E E E E E
|-----------------|-----------------|-------------------|-------------------|
|-------1-----1---|-------1-----1---|---------1-----1---|--------1-----1----|
|-----0-----0---0-|-----0-----0---0-|-------0-----0---0-|------0-----0---0--|
|---2-----2-------|---2-----2-------|---0h2-----2-------|----2-----2--------|
|-3---------------|-3---------------|-3-----------------|--3----------------|
|-----------------|-----------------|-------------------|-------------------|
|
| Gtr II
|                   W                 W                    W
|-----------------|-----------------|-------------------|-------------------|
|-----------------|-8---------------|-------------------|-------------------|
|-----------------|-----------------|-9-----------------|-------------------|
|-----------------|-----------------|-------------------|-10----------------|
|-----------------|-----------------|-------------------|-------------------|
|-----------------|-----------------|-------------------|-------------------|


  Gtr I
  E  E E E E E E E   E E E E E E E E
|------------------|-----------------|
|--------1-----1---|-------3-----1---|
|------0-----0---0-|-----0-----0---0-|
|----2-----2-------|---2-----2-------|
|-3----------------|-3---------------|
|------------------|-----------------|
|
| Gtr II
| Q.     E H         Q   E E Q   E E
|------------------|-----------------|
|------------------|-------5-6---5-6-|
|--------5-5-------|-----7-----------|
|-5----------------|-----------------|
|------------------|-----------------|
|------------------|-----------------|


  E   E E E E     E E E   E E E E  E  S S Q
|-----------------------|----------------------|
|---------1---------1---|-------0-----1p0------|
|-------2---------2---2-|-----2-----------2----|
|-----2-----2-----------|---2------2-----------|
|-0---------------------|-0--------------------|
|-----------------------|----------------------|
|
| S H         +S  E E E   H       +E  E   E E
|-----------------------|-------------------8--|
|-6h8---------(8)-6-8-6-|-5-------(5)-5---8----|
|-----------------------|----------------------|
|-----------------------|----------------------|
|-----------------------|----------------------|
|-----------------------|----------------------|


  Gtr I
  E E E Q   E E E   E E E E E E E E   E   E E E E     E E E   E E E E E E E E
|-----------------|-----------------|-----------------------|-----------------|
|-------1-------1-|-------1-----1---|---------3---------1---|-------3-----0h1-|
|-----2-------2---|-----2-----2---2-|-------0---------0---0-|-----0---0-------|
|---3-------3-----|---3-----3-------|-----0-----0-----------|---0-------0-----|
|-----------------|-----------------|-----------------------|-----------------|
|-1---------------|-1---------------|-3---------------------|-3---------------|
|
| Gtr II
| Q   E E H         E E E E E E E E   S H         +S  E E E   E E H
|-8---7-5---------|-----------------|-----------------------|-----------------|
|---------8-------|---5-8-5---------|-----------------------|-----------------|
|-----------------|---------7h9-7p5-|-5h7---------(7)-5-4-2-|-4-2-0-----------|
|-----------------|-----------------|-----------------------|-----------------|
|-----------------|-----------------|-----------------------|-----------------|
|-----------------|-----------------|-----------------------|-----------------|


  Gtr I
  E  E E E E E E E   E S S E E E E E E
|------------------|---------------------|
|--------1-----1---|---------1-----1-----|
|------0-----0---0-|-------0-----0---0---|
|----2-----2-------|---0h2-----2---------|
|-3----------------|-3-------------------|
|------------------|---------------------|
|
| Gtr II
| Q.     E H         E E   E E Q   E S S
|------------------|---------------------|
|------------------|---------------------|
|--------5-5-------|---5---5-5-7---5-4h5-|
|-5----------------|---------------------|
|------------------|---------------------|
|------------------|---------------------|


  E E E E  E E E E   E E E E E E E E   E E E E E E E E
|------------------|-----------------|------------------|
|-------1------0---|-3-----1-----0---|-------1-----1----|
|-----2------2---2-|-----2-----2---2-|-----2-----2---2--|
|---2------2-------|---2-----2-------|---3-----3--------|
|-0----------------|-0---------------|------------------|
|------------------|-----------------|-1----------------|
|
| Q   E Q.     E     E E E E Q   E E   Q   E H
|------------------|-----------------|------------------|
|--------------3---|-------------5---|-5----------------|
|-5---4-2----------|-------5-7-----7-|-----7-5----------|
|------------------|---5-7-----------|------------------|
|------------------|-----------------|------------------|
|------------------|-----------------|------------------|


  Gtr I
  E E E E E E E E   E   E E E E   E E E   E E E E E E E E   E  E E E E E E E
|-----------------|---------------------|-0---------------|------------------|
|-------1-----1---|-----------3---------|-------3-----0h1-|--------1-----1---|
|-----2-----2---2-|-------0---------0---|-----0-----0-----|------0-----0---0-|
|---3-----3-------|-----0---0-----0---0-|---0-----0-------|----2-----2-------|
|-----------------|---------------------|-----------------|-3----------------|
|-1---------------|-3-------------------|-----------------|------------------|
|
| Gtr II
| Q   E E E E E E   S H         S E E E   W                 Q.     E H
|-----------------|---------------------|-----------------|------------------|
|-----------------|---------------5-----|-----------------|------------------|
|-----5-7-7-9-7-5-|-5h7-------------7-5-|-7---------------|--------5-5-------|
|-----------------|---------------------|-----------------|-5----------------|
|-----------------|---------------------|-----------------|------------------|
|-----------------|---------------------|-----------------|------------------|


  Gtr I
  E E E E E E E E   E E E E E E E E
|-----------------|-----------------|
|-3-----3-----0h1-|-------1-----0---|
|-----0-----0-----|-----2-----2---0-|
|---2-----2-------|---2-----2-------|
|-3---------------|-0---------------|
|-----------------|-----------------|
|
| Gtr II
| E E E E Q   E E   Q   E H
|-----------------|-----7-3---------|
|---------5---6-5-|-5---------------|
|---4-5-7---------|-----------------|
|-----------------|-----------------|
|-----------------|-----------------|
|-----------------|-----------------|


   E  E E E E E E E   E   E E     E E E E E
|-------------------|-----------------------|
|--3------1-----0---|---------------1-------|
|-------2-----2---2-|-------2-----------2---|
|-----2-----2-------|-----3-------3---3---3-|
|--0----------------|-----------------------|
|-------------------|-1---------------------|
|
| +E  E E E Q   E E   S Q     +S  E H
|-(3)-3-3-3-3---5-7-|-7h8-----(8)-7-5-------|
|-------------------|-----------------------|
|-------------------|-----------------------|
|-------------------|-----------------------|
|-------------------|-----------------------|
|-------------------|-----------------------|


  Gtr I
  E E E E  E E E  E    E    E E E E   E     E     E
|-------------------|-------------------------------|
|-0-----1------1----|-------------0-----------------|
|-----2------2----2-|---------0-------------0-------|
|---3------3--------|-------0---0-----0-----------0-|
|-------------------|-------------------------------|
|-1-----------------|--3----------------------------|
|
| Gtr II
| E E E E  Q   E  E    S  H         E    S  S  E.
|---8-7-8-10---8-10-|-10S12-------------12h13p12----|
|-------------------|-------------------------------|
|-------------------|-------------------------------|
|-------------------|-------------------------------|
|-------------------|-------------------------------|
|-------------------|-------------------------------|


   E  E E E E E E E   E  E E E E  E E E
|-------------------|-------------------|
|--1------3-----0h1-|--------1------1---|
|-------0-----0-----|------0------0---0-|
|-----0-----0-------|----2-----2--------|
|-------------------|-3-----------------|
|-------------------|-------------------|
|
|  Q.     E E E E E   Q.     E Q.     E
|-10------8-5-8-5---|-------------------|
|-----------------8-|-5------8-5--------|
|-------------------|-----------------7-|
|-------------------|-------------------|
|-------------------|-------------------|
|-------------------|-------------------|


  Gtr I
  E  E E E E E E E   E  E E E E E Q    E E E E E E E E     E  E E E E E E E
|--------0---------|-----------------|-------------------|-------------------|
|-3------------3-1-|--------1-0------|-3-----1-----0-----|----------1--------|
|------0---0-------|------2-----2----|-----2---2-----2---|------2-------2----|
|----2---2---2-----|----2---------2--|---2-------2-------|----3---3---3---3--|
|-3----------------|-0---------------|-0-----------------|-------------------|
|------------------|-----------------|-------------------|-1-----------------|
|
| Gtr II
| Q.     E Q   E E   Q.     E H        E E E E Q   E S S   Q.     E H
|------------------|-----------------|-------------------|-------------------|
|-5------8-5---6-5-|-5---------------|-------------------|-------------------|
|------------------|--------7-5------|-------4-5---7-4h5-|-5-----------------|
|------------------|-----------------|---5-7-------------|--------5-7--------|
|------------------|-----------------|-------------------|-------------------|
|------------------|-----------------|-------------------|-------------------|


  Gtr I
  E E E E E E E E   E E E E E E E E   H    Q    E E E E E E E E
|-----------------|-----------------|---------|-----------------|
|-0-----1-------1-|---------3---1p0-|------3--|-----0-3-0---0---|
|-----2-----2-----|-----0-----------|-0-------|---0-------0---0-|
|---3-----3---3---|---0---0---0-----|---------|-----------------|
|-----------------|-----------------|---------|-----------------|
|-1---------------|-3---------------|---------|-3---------------|
|
| Gtr II
| Q   Q   Q   Q     H       Q   E E   H         Q   E E E Q   E
|-----------------|-------------5-7-|-7-------|-----7-7-7-8---7-|
|-------------5---|-5---------------|---------|-----------------|
|-----5---7-------|-----------------|---------|-----------------|
|-----------------|-----------------|---------|-----------------|
|-----------------|-----------------|---------|-----------------|
|-----------------|-----------------|---------|-----------------|


  Gtr I
  E  E     E E E E E E   E   E E E E   E E E
|----------------------|---------0-----------|
|----------0---1---1h3-|-------1---1---------|
|------------0---0-----|-----0---------0---0-|
|----0-----------------|-----------------2---|
|----------------------|-3-------------------|
|-3--------------------|---------------------|
|
| Gtr II
| E +S  E.   E Q   E E   S H         S E Q
|-7-(7)-5----7-----5-7-|-7h8-------------8---|
|--------------8-------|---------------8-----|
|----------------------|---------------------|
|----------------------|---------------------|
|----------------------|---------------------|
|----------------------|---------------------|


  E  E E E  E E E E   E E  E E E E E E
|--------0----------|-------------------|
|------1--------1h3-|--------3-----1p0--|
|----0--------0-----|------0-----0------|
|-----------2-------|---0------0--------|
|-3-----------------|-------------------|
|-------------------|-3-----------------|
|
| E  E Q    Q   Q     Q    E H
|-8h10-8--------8---|-7-----------------|
|----------10-------|-----10-8----------|
|-------------------|-------------------|
|-------------------|-------------------|
|-------------------|-------------------|
|-------------------|-------------------|


  Gtr I
  E E E E E E  E E   E   E E     E  E E E E
|------------------|------------------------|
|--------------1h3-|-------------1------1---|
|-----0---2--------|-------2----------2-----|
|---0---0---0------|-----2----------2-----2-|
|------------------|-0----------------------|
|-3----------------|------------------------|
|
| Gtr II
| Q   E E Q    E E   S Q     +S  E  H
|----------------7-|-7h8-----(8)-7----------|
|-----8-8-8---10---|---------------10-------|
|------------------|------------------------|
|------------------|------------------------|
|------------------|------------------------|
|------------------|------------------------|


  E E E E E E E E   E E E E E E E E
|-----------------|-----------------|
|-----0---1-------|-------1-----1---|
|-2-----------2---|-----2-----2---2-|
|---2---2---2---2-|---3-----3-------|
|-----------------|-----------------|
|-----------------|-1---------------|
|
| W                 E E E E E E E E
|-----------------|-----------------|
|-----------------|---8-5-3-3-5-----|
|-9---------------|-------------5p4-|
|-----------------|-----------------|
|-----------------|-----------------|
|-----------------|-----------------|


  Gtr I
  E E E E E E E E   E   E E E E   E E E   E E E E E E E E   E  E E E E E E E
|-----------------|---------------------|-----------------|------------------|
|-------1-----1---|---------3-------1p0-|-------0-1---3---|------1-----1---1-|
|-----2-----2---2-|-------0-------0-----|-0---0-----------|----0---0-0---0---|
|---3-----3-------|-----0-----0---------|---0-------0---0-|------------------|
|-----------------|---------------------|-----------------|-3----------------|
|-1---------------|-3-------------------|-----------------|------------------|
|
| Gtr II
| E E E E E Q   E   S H         S E E E   E E H       E E   Q.     E Q   Q
|-----------------|---------------------|-----------------|------------------|
|-----------------|---------------------|-----------------|--------5-5---8---|
|-4h5-------4---5-|-5h7-----------5-4-2-|-4-2-0---------4-|-5----------------|
|-----7-5-7-------|---------------------|-------------7---|------------------|
|-----------------|---------------------|-----------------|------------------|
|-----------------|---------------------|-----------------|------------------|


  Gtr I
  E E E E E E E E   E E E E E E E E   E E E E E E E E   E  E E E  E E E E
|-----------------|-----------------|-----------------|-------------------|
|-----0-----0---0-|-------1-----0---|-----------------|------1------1---1-|
|---0---0-0---0---|-----2-----2---2-|-----2-------0---|----0---0--0---0---|
|-----------------|---2-----2-------|---3---3---0---0-|-------------------|
|-2---------------|-0---------------|-----------------|-3-----------------|
|-----------------|-----------------|-1-------3-------|-------------------|
|
| Gtr II
| Q   E E Q   E E   E E H             E E E E Q   E E   Q.     Q.     Q
|-----------------|-----------------|-----0---------0-|-------------------|
|-------5-8-------|-----------------|-----------------|--------5------8---|
|-7---7-------7-4-|-4h5-------------|---5-----7---7---|-5-----------------|
|-----------------|-----7-----------|-7-----7---------|-------------------|
|-----------------|-----------------|-----------------|-------------------|
|-----------------|-----------------|-----------------|-------------------|


  Gtr I
  E E E E E E E E   E E E E E E E E   E E E E E E E E   E   E E E E   E   E E
|-------3---------|-0---------------|-----------------|------------------------|
|-----0-----0---0-|-------1-----0---|-----------------|---------1---------1----|
|---0-----0---0---|-----2-----2---2-|-----2-------0---|-------0-------0-----0--|
|-----------------|---2-----2-------|---3---3---0---0-|-----2-----2------------|
|-2---------------|-0---------------|-----------------|-3----------------------|
|-----------------|-----------------|-1-------3-------|------------------------|
|
| Gtr II
| E E E E E E E E   Q   E H           E E E E E E E E   S H         E   S E E
|---0---0---0---0-|-----------------|-----0-----0-----|------------------------|
|-3---3---5---5---|-5---------------|-----------------|------------------------|
|-----------------|-----5-----------|---5-----7---7-4-|-4h5---------------4h5--|
|-----------------|-------7---------|-7-----7---------|------------------------|
|-----------------|-----------------|-----------------|------------------------|
|-----------------|-----------------|-----------------|------------------------|


  Gtr I
  E E E E E E E E    E E E E  E  E E E   E S S E E E E E E   E  E E E E E E E
|-----------------||-------------------|-------------------|-------------------|
|-------1-----0h1-||-------1-------1---|---------1---1-3h5-|--------1-----1----|
|-----0-----0-----||-----0-------0---0-|-------0---0-------|------0-----0---0--|
|---2-----0-------||---2------2--------|---0h2-------------|----2-----2--------|
|-3---------------||-3-----------------|-3-----------------|-3-----------------|
|-----------------||-------------------|-------------------|-------------------|
|
| Gtr II
| W                  H       +Q    E E   W                   Q.     E H
|-----------------||-------------------|-------------------|-------------------|
|-3---------------||-1-------(1)---3h5-|-5-----------------|-5------6-5--------|
|-0---------------||-------------------|-------------------|-------------------|
|-----------------||-------------------|-------------------|-------------------|
|-----------------||-------------------|-------------------|-------------------|
|-----------------||-------------------|-------------------|-------------------|


  Gtr I
  E E E E E E E E   E E E E  E  E E E
|-----------------|-------------------|
|-------1-----1---|-------1-------0---|
|-----0-----0---0-|-----2-------2---2-|
|---2-----2-------|---2------2--------|
|-3---------------|-0-----------------|
|-----------------|-------------------|
|
| Gtr II
| Q   E E Q   E E   H       +E  E E E
|-----------------|-------------------|
|-----5-6-5-------|-8-------(8)-6-8-6-|
|-------------7-5-|-------------------|
|-----------------|-------------------|
|-----------------|-------------------|
|-----------------|-------------------|


  E E E E  E  E E E   E E   E   E E E   E   E
|-------------------|-------------------------|
|-------1-------0---|-----------1-------1-----|
|-----2-------2---2-|-------2-------2-------2-|
|---2------2--------|---3---------3-----------|
|-0-----------------|-------------------------|
|-------------------|-1-----------------------|
|
|                     |---3---|   |---3---|
| H       +E  E E E   Q   Q   Q   Q   Q   Q
|-------------------|-------------------------|
|-5-------(5)---5h6-|-6---6---6---6---5---5---|
|-------------7-----|-------------------------|
|-------------------|-------------------------|
|-------------------|-------------------------|
|-------------------|-------------------------|


  Gtr I
  E E   E   E E E   E   E   E   E E E E   E E E
|-------------------------|---------------------|
|-----------0-------1-----|---------3-------3---|
|-------2-------2-------2-|-------0-------0---0-|
|---3---------3-----------|-----0-----0---------|
|-------------------------|---------------------|
|-1-----------------------|-3-------------------|
|
| Gtr II
| |---3---|   |---3---|
| Q   Q   Q   Q   Q   Q     S H         S E E E
|-------------------------|---------------------|
|-5-----------------------|---------------------|
|-----7---7---7---5---5---|-5h7-----------5-4-2-|
|-------------------------|---------------------|
|-------------------------|---------------------|
|-------------------------|---------------------|


  E E E E E E E E   E  E E E E E E E
|-----------------|------------------|
|-------3p1---1---|--------1-----1---|
|-----0-----0---0-|------0-----0---0-|
|---0-------------|----2-----2-------|
|-----------------|-3----------------|
|-3---------------|------------------|
|
| E E H       E E   Q.     E H
|-----------------|------------------|
|-----------------|----------5-------|
|-4-2-0---------4-|-5------7---------|
|-------------7---|------------------|
|-----------------|------------------|
|-----------------|------------------|


  Gtr I
  E E E E E E E E   E  E E E E E E E
|-----------------|------------------|
|-------3-----0h1-|--------1-----0---|
|-----0-----0-----|------2-----2---2-|
|---2-----2-------|----2-----2-------|
|-3---------------|-0----------------|
|-----------------|------------------|
|
| Gtr II
| Q   E E Q   E E   Q.     E H
|-----------------|-7------5-3-------|
|-----5-6-5-----5-|------------------|
|-------------7---|------------------|
|-----------------|------------------|
|-----------------|------------------|
|-----------------|------------------|


   E  E E E E E E E   E   E E     E E E E E
|-------------------|-----------------------|
|---------1-----0---|-------------1-----1---|
|-------2-----2---2-|-------2---------2---2-|
|-----2-----2-------|-----3---------3-------|
|--0----------------|-----------------------|
|-------------------|-1---------------------|
|
| +Q    E E Q   E E   S Q     +S  E H
|-(3)---3-3-3---5-7-|-7h8-----(8)-7-5-------|
|-------------------|-----------------------|
|-------------------|-----------------------|
|-------------------|-----------------------|
|-------------------|-----------------------|
|-------------------|-----------------------|


  Gtr I
  E E E E  E E E E     E  E E E E E E E    H    Q   T E E
|--------------------|------------------||------3---------|
|-------1------1-----|--------3-----1p0-||------------3p1-|
|-----2------2---2---|------0-----0-----||-0--------------|
|---3------3---------|----0-----0-------||----------------|
|--------------------|------------------||----------------|
|-1------------------|-3----------------||----------------|
|
| Gtr II
| Q   E E  E Q   S S   Q.     E H          H    T Q   E E
|-----7-8-10-8---5h7-|-7------5-3-------||--------3---1p0-|
|--------------------|------------------||----------------|
|--------------------|------------------||----------------|
|--------------------|------------------||----------------|
|--------------------|------------------||----------------|
|--------------------|------------------||----------------|


  Gtr I
  E E E E E E E E   E  E E E E E E E
|-----------------|------------------|
|-----1---1---0h1-|------1---1---0h1-|
|---0---0---0-----|----0---0---0-----|
|-----------------|------------------|
|-----------------|------------------|
|-1---------------|-1----------------|
|
| Gtr II
| Q   E Q   E E E   Q.     E E E E E
|-----------------|------------------|
|-5---6p5-------5-|----------5h6-5p3-|
|-----------7-7---|-5------7---------|
|-----------------|------------------|
|-----------------|------------------|
|-----------------|------------------|


  E E E E E E  E  E     E  E E E   E E E E
|---------------------|--------------------|
|-----1---1----0h=1---|------1-----3---0h1-|
|---0---0---0---------|----0---0-----0-----|
|---------------------|--------------------|
|-0-------------------|-0------------------|
|---------------------|--------------------|
|
| E E H       +E  S S   Q.     S S Q   E E
|---------------------|--------------------|
|-3h5-----------------|--------------------|
|-----5-------(5)-2p1-|-2------------------|
|---------------------|--------2p0-2---0---|
|---------------------|------------------3-|
|---------------------|--------------------|


  Gtr I
  E  E E E   E E E E   E E E E E   E E E   E E E E E E E E   E E E E E E E E
|------------0-------|---------0---------|-------------0---|-1---0------------|
|------1---------1---|-----1---------1---|-----1---3-------|---------3---0h1--|
|----0---0-----0---0-|---0---0-----0---0-|---0---0---0---0-|---0---0---0------|
|--------------------|-------------------|-----------------|------------------|
|--------------------|-------------------|-0---------------|-0----------------|
|-1------------------|-1-----------------|-----------------|------------------|
|
| Gtr II
| Q.     S S E E E E   Q   E E H           Q   E E E E E E   H       Q   Q
|--------------------|-------------------|-----------------|------------------|
|--------------------|-------------------|-----5-6-6-5---5-|------------------|
|------------------5-|-7---5-7-7b9-------|-------------7---|-5-----------0----|
|------------2-5-7---|-------------------|-----------------|------------------|
|-0------3-0---------|-------------------|-----------------|------------------|
|--------------------|-------------------|-----------------|------------------|


  Gtr I
  E E E E E E E E   E E E E E E E E   E E E E E E E E   E E E E E E E E
|-----------------|-----------------|-----------------|-----0-----------|
|-----1---1---0h1-|-----1---1---0h1-|-----1---3---0h1-|---------3---0h1-|
|---0---0---0-----|---0---0---0-----|---0---0---0-----|---0---0---0-----|
|-----------------|-----------------|-----------------|-----------------|
|-----------------|-----------------|-0---------------|-0---------------|
|-1---------------|-1---------------|-----------------|-----------------|
|
| Gtr II
| E E E E E E E E   E E E E E E E E   E E E E E E E E   E E E E E E E E
|-----------------|---0---0---------|-----------3---3-|---0---0---------|
|---1---1---3---3-|-----------0---0-|---1---1---------|-----------3---3-|
|-2---2---2---2---|-2---2---2---2---|-2---2---2---2---|-2---2---2---2---|
|-----------------|-----------------|-----------------|-----------------|
|-----------------|-----------------|-----------------|-----------------|
|-----------------|-----------------|-----------------|-----------------|


  Gtr I
  E E E E E E E E E E E E E E E E    E  E E E E E E E   E  E E   E  E E E E
|---------------------------------|-------------------|----------------------|
|-----1---0---1---3---1---0---1---|-------3---1---3---|-------------1--------|
|---0---0---0---0---0---0---0---0-|-----0---0---0---0-|-0--0-----0------2h4--|
|---------------------------------|-------------------|------0--------0------|
|---------------------------------|-------------------|----------------------|
|-1---1---1---1---1---1---1---1---|--3----3---3---3---|-3--------------------|
|
| Gtr II
| Q   E Q   Q   Q   Q   Q   Q   E   +Q    E Q   Q   E   Q.       Q.     E
|-------------------0---0---------|-------------------|----------------------|
|-------1---3---3-----------1---1-|-(1)-----1---3---3-|-0------<12>----------|
|---------------------------------|-------------------|-----------------2----|
|---------------------------------|-------------------|----------------------|
|---------------------------------|-------------------|----------------------|
|---------------------------------|-------------------|----------------------|


  Gtr I
  E E E  E   E E E E    E  E E E E E E E
|------------0-------|-----------0-------|
|-----1----------1---|-------1-------1---|
|---0----0-----0---0-|-----0---0---0---0-|
|--------------------|-------------------|
|--------------------|-------------------|
|-1------------------|--1----------------|
|
| Gtr II
| Q   E.   S E E E E   +E  E E E E E E E
|--------------------|-------------------|
|--------------------|-------------------|
|-5---5----5h7-5-4h5-|-(5)-----4-5h7-7h9-|
|--------------------|-----5-7-----------|
|--------------------|-------------------|
|--------------------|-------------------|


  E E E  E    E E E E   E E E E E E E E
|-----------------0---|-----0-----------|
|-----0-------1-------|---------3---0h1-|
|---0----0------0---0-|---0---0---0-----|
|---------------------|-----------------|
|-0-------------------|-0---------------|
|---------------------|-----------------|
|
| Q   E.   S  E E E E   H       Q   E E
|---------------------|-----------------|
|---------------------|-----------------|
|-9---9----9h10-9-7h9-|-5-----------4h5-|
|---------------------|---------7-------|
|---------------------|-----------------|
|---------------------|-----------------|


  Gtr I
  E E E  E   E E E E    E  E E   E   E E E E
|-----0--------------|-----------------------|
|------------3---1---|-------1-------3---0h1-|
|---0----0-----0---0-|-----0-----0-----0-----|
|--------------------|-----------------------|
|--------------------|-----------------------|
|-1------------------|--1--------------------|
|
| Gtr II
| Q   E.   S E E E E   +Q    S S S S E E E E
|--------------------|-----------------------|
|--------------------|---------------------5-|
|-5----------------5-|-(5)---------4-5-7-7---|
|-----5----5h7-5-7---|---------5-7-----------|
|--------------------|-----------------------|
|--------------------|-----------------------|


  E  E E E E E E E   E E   E  E   E  E E E
|------------------|------------------------|
|------3---1---0---|-0------------1----0h1--|
|----0---0---0---0-|---0------0------0------|
|------------------|-------0----------------|
|------------------|------------------------|
|-3----------------|-3----------------------|
|
| Q.     E Q   E E   Q     Q      H
|------------------|------------<12>--------|
|-5------6-5---3h5-|-0---<12>---------------|
|------------------|------------------------|
|------------------|------------------------|
|------------------|------------------------|
|------------------|------------------------|


  Gtr I
  E E E E E E E E   E E   E   E E  E    E E
|-----0-----------|-------0-------------0-----|
|---------3---1---|-------------3-------------|
|---0---0---0---0-|---0-------0----0------0---|
|-----------------|---------------------------|
|-----------------|---------------------------|
|-1---------------|-1-------------------------|
|
| Gtr II
|                   |---3---|
| H       Q   E E   Q   Q   Q   E.   E.   S S
|-----------------|---------------------------|
|-8-----------8-8-|-8---6---6---6----5----3h5-|
|-----------------|---------------------------|
|-----------------|---------------------------|
|-----------------|---------------------------|
|-----------------|---------------------------|


  E E E E E E E E   E E E E E E E E
|---------0---1---|-0-------------0-|
|-----0-----------|-----3---1---1---|
|---0---0---0---0-|---0---0---0-----|
|-----------------|-----------------|
|-0---------------|-0---------------|
|-----------------|-----------------|
|
| Q   E E Q   E E   E E E E E E E
|-----------------|-----------------|
|-5---------------|-----------------|
|-----5-4-5-------|---5-7-5-7S9-7---|
|-------------7-5-|-7---------------|
|-----------------|-----------------|
|-----------------|-----------------|


  Gtr I
  E  E E E   E  E E  E    E E E  E E E  E E
|----------------------|--------------------|
|------1-----3----0h=1-|------1----3----0h1-|
|----0---0------0------|----0----0---0------|
|----------------------|--------------------|
|----------------------|--------------------|
|-1--------------------|--1-----------------|
|
| Gtr II
| Q.     S S E  E E  E    Q   E  E Q    E E
|----------------------|-----------8------8-|
|------------8-10-8-10-|-10---8-10-----10---|
|-9------7-9-----------|--------------------|
|----------------------|--------------------|
|----------------------|--------------------|
|----------------------|--------------------|


  E E E E  E  E E E   E E E E E E E E
|-------------------|------------------|
|-----3----1----3---|-0-----0-----0h1--|
|---0---0-----0---0-|-----0-----0------|
|-------------------|---0-----0--------|
|-------------------|------------------|
|-3-----------------|-3----------------|
|
| H       +E  E E E   E E E E H
|-8-------(8)-8-7-5-|-5h7-5S3-3--------|
|-------------------|------------------|
|-------------------|------------------|
|-------------------|------------------|
|-------------------|------------------|
|-------------------|------------------|


  Gtr I
  E E E E E E E E   E E E E E E E E    E  E E E E E E E   E E E E E E Q
|-----------------|-0-----0---------|-------------------|----------------|
|-------1-----1---|-------------3---|-------------------|----------------|
|-----0-----0---0-|-----0-----0---0-|-------2---0---2---|-----2---0---2--|
|---2-----2-------|---2-----2-------|-----2---2---2---2-|---2---2---2----|
|-3---------------|-3---------------|--0----------------|-0--------------|
|-----------------|-----------------|-------------------|----------------|
|
| Gtr II
| Q   E E E Q   E   E E E E E E E E   +Q    E E E E E E   E E E E Q   Q
|-----------------|-----------------|-------------------|----------------|
|-----8-8-8S5-----|-5---------------|-------5-5-5h6-5---|----------------|
|---------------7-|---7-5p4-4h5-5S7-|-(7)-------------4-|-4h5-----5---4--|
|-----------------|-----------------|-------------------|-----5h7--------|
|-----------------|-----------------|-------------------|----------------|
|-----------------|-----------------|-------------------|----------------|


  Gtr I
  E E E E E E E E   E E E E E E E E   E E E E E E E E   E E E E E E E E
|-----------------|-----------------|-----------------|-----------------||
|-------1-----0---|-------1-----1---|---------3-----3-|-1-----0-----0h1-||
|-----2-----2---2-|-----2-----2---2-|-----0-------0---|-----0-----0-----||
|---3-----3-------|---3-----3-------|---0---0---0-----|---0-----0-------||
|-----------------|-----------------|-----------------|-----------------||
|-1---------------|-1---------------|-3---------------|-3---------------||
|
| Gtr II
| Q   E E Q   E E   Q   E E E E Q     E E E E E E E E   W
|-----------------|-----------------|-----------------|-----------------||
|-----------------|-----------------|-----------------|-----------------||
|-5-------5-------|-5-------5h7p5---|-4h5p4-2-4-2-0-2-|-0---------------||
|-----5h7-----5h7-|-----5h7---------|-----------------|-----------------||
|-----------------|-----------------|-----------------|-----------------||
|-----------------|-----------------|-----------------|-----------------||


  Gtr I
  E  E E E E E E E   E E E E E E E E
|------------------|-----------------|
|--------1-----1---|-3-----1-----1---|
|------0-----0---0-|-----0-----0---0-|
|----2-----2-------|---2-----2-------|
|-3----------------|-3---------------|
|------------------|-----------------|
|
| Gtr II
| Q.     E H         Q   E E Q   E E
|------------------|-----------------|
|------------------|-------5-6---5-6-|
|--------5-5-------|-----7-----------|
|-5----------------|-----------------|
|------------------|-----------------|
|------------------|-----------------|


  E   E E E E     E E E   E E E E  E  E E E
|-----------------------|-------------------|
|---------1---------1---|-------1-------0---|
|-------2---------2---2-|-----2-------2---2-|
|-----2-----2-----------|---2------2--------|
|-0---------------------|-0-----------------|
|-----------------------|-------------------|
|
| S H         +S  E E E   H       +E  E E E
|-----------------------|-------------------|
|-6S8---------(8)-6-8-6-|-5-------(5)-3-5h6-|
|-----------------------|-------------------|
|-----------------------|-------------------|
|-----------------------|-------------------|
|-----------------------|-------------------|


  Gtr I
  E E   E   E E E   E   E   E E   E   E E E   E   E
|-------------------------|-------------------------|
|-----------1-------1-----|-----------1-------1-----|
|-------2-------2-------2-|-------2-------2-------2-|
|---3---------3-----------|---3---------3-----------|
|-------------------------|-------------------------|
|-1-----------------------|-1-----------------------|
|
| Gtr II
| |-----3-----|   |-3-|     |---3---|   |---3---|
| Q   Q   Q   Q   Q   Q     Q   Q   Q   Q   Q   Q
|-------------------------|-------------------------|
|-6---6---6---6---5---5---|-5-----------------------|
|-------------------------|-----7---7---7---5---5---|
|-------------------------|-------------------------|
|-------------------------|-------------------------|
|-------------------------|-------------------------|


  E   E E E E   E E E   E E E  E E E E E
|---------------------|--------------------|
|-----------0-------0-|-1------3-----0h1---|
|-------0---------0---|-----0------0-------|
|-----0---0-----0-----|---0------0---------|
|---------------------|--------------------|
|-3-------------------|--------------------|
|
| S H         S E E E   E E Q.     E Q
|---------------------|--------------------|
|---------------------|--------------------|
|-5h7-----------5-4-2-|-4-2-0--------2-----|
|---------------------|--------------------|
|---------------------|--------------------|
|---------------------|--------------------|


  Gtr I
  E  E E E E E E E   E E E E E E E E   E E E E E E E E    E  E E E E E E E
|------------------|-----------------|-----------------|-------------------|
|--------1-----1---|-------3-----0h1-|-------1-----0---|---------1-----0---|
|------0-----0---0-|-----0-----0-----|-----2-----2---2-|-------2-----2---2-|
|----2-----2-------|---2-----2-------|---2-----2-------|-----2-----2-------|
|-3----------------|-3---------------|-0---------------|--0----------------|
|------------------|-----------------|-----------------|-------------------|
|
| Gtr II
| Q.     E H         Q   Q   Q   Q     Q   Q   H         +Q    E E Q   E E
|------------------|-----------------|-----7-----------|-------------------|
|-1--------1-------|-----3---5---6---|-5-------8-------|-(8)---8-8-8---6-5-|
|--------0---------|-----------------|-----------------|-------------------|
|------------------|-----------------|-----------------|-------------------|
|------------------|-----------------|-----------------|-------------------|
|------------------|-----------------|-----------------|-------------------|


  Gtr I
  E   E E     E E E E E   E  E E E E E E E
|-----------------------|------------------|
|-------------1-----1---|--------1-----1---|
|-------2---------2---2-|------2-----2---2-|
|-----3---------3-------|----3-----3-------|
|-----------------------|------------------|
|-1---------------------|-1----------------|
|
| Gtr II
| S Q     +S  E Q   E E   Q.     Q   E Q
|-----------------------|------------------|
|-5h6-----(6)-5-3---3-5-|--------------3---|
|-----------------------|-5------2---4-----|
|-----------------------|------------------|
|-----------------------|------------------|
|-----------------------|------------------|


  E  E E E  E E E E   E E E E E E E E
|-------------------|-----------------|
|-----------0---3---|-1---0---1---3---|
|------0----------0-|---0---0---0---0-|
|----0---0----0-----|-----------------|
|-------------------|-----------------|
|-3-----------------|-----------------|
|
| Q.     Q.     E E   W
|-------------------|-----------------|
|-1------1------1-3-|-0---------------|
|-------------------|-----------------|
|-------------------|-----------------|
|-------------------|-----------------|
|-------------------|-----------------|


  Gtr I
  E E E E E E E E    E  E E E E E E E    E  E E E E E E E    E  E E E E E E E
|-------0---------|-------------------|-------------------|-------------------|
|-------------1---|---------1-----1---|---------1-----0---|---------1-----0---|
|-----0-----0---0-|-------0-----0---0-|-------2-----2---2-|-------2-----2---2-|
|---2-----2-------|-----2-----2-------|-----2-----2-------|-----2-----2-------|
|-3---------------|--3----------------|--0----------------|--0----------------|
|-----------------|-------------------|-------------------|-------------------|
|
| Gtr II
| Q   Q   Q   Q     +Q    Q   Q   Q     +Q    Q   Q   Q     +Q    Q   Q   Q
|---------0-------|-----------0-------|-------------------|-------------------|
|-----------------|-------------------|-----------1-------|-----------1-------|
|-----0-------0---|-(0)---0-------0---|-(0)---2-------2---|-(2)---2-------2---|
|-----------------|-------------------|-------------------|-------------------|
|-----------------|-------------------|-------------------|-------------------|
|-----------------|-------------------|-------------------|-------------------|


  Gtr I
   E  E E E E E E E   E E E Q   E E E   E E E E Q  Q    Q   Q   Q  Q
|-------------------|-----------------|---------------|---------------|
|---------1-----1---|-------1-----1---|---------3--1--|-1---0---------|
|-------2-----2---2-|-----2-----2---2-|-----0---------|---------0-----|
|-----3-----3-------|---3-------------|---0---0-------|------------0--|
|-------------------|-----------------|---------------|---------------|
|--1----------------|-1---------------|-3-------------|---------------|
|
| Gtr II
| +Q    Q   Q   Q     Q   Q   Q   Q     Q   Q   Q  Q    Q.    H
|-------------------|-1-----------1---|-----0---------|---------------|
|-----------3-------|---------3-------|-3-------3-----|-1-----0-------|
|-(2)---2-------2---|-----2-----------|------------0--|---------------|
|-------------------|-----------------|---------------|---------------|
|-------------------|-----------------|---------------|---------------|
|-------------------|-----------------|---------------|---------------|


  Gtr I
  E E E E E E Q    E E E E E E Q    E E E Q  E E S S   E E E E E E E E
|-------0-----3--|-------3--------|------------------|------------------|
|----------------|-3-----------0--|-------1------0h1-|-------1-------0--|
|-----0-----0----|-----0-----0----|-----2------2-----|-----2-------0----|
|---2-----2------|---0-----0------|---2------2-------|---3-------0------|
|-3--------------|-2--------------|-0----------------|------------------|
|----------------|----------------|------------------|-1-------3--------|
|
| Gtr II
| W                W                W                  H       H
|----------------|-3--------------|------------------|------------------|
|-1--------------|----------------|-1----------------|-1-------3--------|
|----------------|----------------|------------------|------------------|
|----------------|----------------|------------------|------------------|
|----------------|----------------|------------------|------------------|
|----------------|----------------|------------------|------------------|


  Gtr I
  E E E Q  E E E   E E E Q  E E E   Q  E Q  Q     H      H
|-------0------0-|-------3------0-|-------------|---------------|
|-----1------1---|-3---0------1---|-1-----------|--------0------|
|---0------0-----|---0------0-----|------2------|-2-------------|
|----------------|----------------|----2----2---|---------------|
|-3--------------|-2--------------|-0-----------|---------------|
|----------------|----------------|-------------|-1------3------|
|
| Gtr II
| W                W                W             Q  E E Q  E E
|-0--------------|-3--------------|-------------|---------------|
|----------------|----------------|-1-----------|-------------0-|
|----------------|----------------|-------------|------2--------|
|----------------|----------------|-------------|----2------2---|
|----------------|----------------|-------------|---------------|
|----------------|----------------|-------------|---------------|


  Gtr I
  W
|----------|----|
|-1--------|----|
|-0--------|----|
|-2--------|----|
|-3--------|----|
|----------|----|
|
| Gtr II
| W
|----------|----|
|-1--------|----|
|----------|----|
|----------|----|
|----------|----|
|----------|----|

Login or Register to remove this ad.

12 comments on Sleep My Sephy

Very nice. Too bad it's

Very nice. Too bad it's super long... Lol
I wish there was a scroll down script for tabs like this.

Thanks, I would recommend

Thanks, I would recommend getting the zip, and open the powertab file to view it in Power Tab, it will be much easier than possibly deciphering the ascii..lol

Alright. Now, how do I get

Alright. Now, how do I get Power Tab to play the Midi in sync with the tab?
Thanks.

Nevermind. I got it.

Nevermind. I got it.

hit the green play button in

hit the green play button in powertab :)

Hey I hope you don't mind

Hey I hope you don't mind but I took out the huge key at the bottom because it stretches the page and its kind of unnecessary IMO. This tab is flippin awesome though, GREAT job.

Fine by me. :) I had to

Fine by me. :) I had to update it again, because I guess I didn't do it right last time because nothing was changed..lol the right one is up now...only thing different is a few hammers changed to slides and a more comfortable fingering.

Question: What part of the

Question: What part of the game is this song from? I heard the entire midi and I don't remember it.

This is actually a song from

This is actually a song from OCReMix's Final Fantasy 7 tribute album, not the OST.

hey, question. what's with

hey, question.

what's with the part about halfway through

| Gtr II
| E E E E E E E E Q E H E E E E E E E E S H E S E E
e|---0---0---0---0-
B|-3---3---5---5---

aren't 5 on B and open e the same note?

it just sounds off

yeah, that part was tricky

yeah, that part was tricky to figure out what was going on in the song, but thats what I got out of it...

Frakkin' Awesome

5

Love this tab and the song. Pot Hocket/Ajrock FTW.