Ads

Shinra Company (Final Fantasy VII) Guitar Tab

Submitted: Oct 01, 2007 by archard

4.4
Average: 4.4 (5 votes)
Download | Listen
Game: Final Fantasy VII
Composer(s): Nobuo Uematsu
Style: Transcription
Series: Final Fantasy

AutoScroll: Slow | Medium | Fast
Shinra Company
Final Fantasy VII
Composed by Nobuo Uematsu

8/11/06

e--------------1-3-5--------------------------
B------1---2-4--------------------------------
G--3------------------------------------------
D------------------------3-----4-----3--------
A---------------------------------------------
E---------------------------------------------

e------------0-2-3-5------------------
B------1---3--------------------------
G--3----------------------------------
D------------------------5-----4-----5
A-------------------------------------
E-------------------------------------

e--9---8---4-6---------------------9---8---4-6---------------
B----------------6-------------------------------------------
G------------------------------------------------------------
D--------------------(3)-(1)-(3)-----------------(3)-(1)-(5)-
A------------------------------------------------------------
E------------------------------------------------------------

e--6---5---1-3---------------------6---5---1-3
B----------------3----------------------------
G---------------------------------------------
D--------------------(5)-(3)-(5)--------------
A---------------------------------------------
E---------------------------------------------
Login or Register to remove this ad.

2 comments on Shinra Company

hey this sounded great cept

hey this sounded great cept you're missing a bit at the end...i think lol

Great Job :D

4

Great Job :D