Ads

Sending a Dream into the Universe (Final Fantasy VII) Guitar Tab

Submitted: Oct 01, 2007 by archard

4.833335
Average: 4.8 (6 votes)
Download | Listen
Game: Final Fantasy VII
Composer(s): Nobuo Uematsu
Style: Transcription
Series: Final Fantasy

AutoScroll: Slow | Medium | Fast
Sending a Dream Into the Universe
Final Fantasy VII
Composed by Nobuo Uematsu

8/25/06

e--------3-----------3-----------3-----------3---
B--4-----------3-----------4-----------3---------
G--5-----------3-----------5-----------3---------
D--5-----------3-----------6-----------3---------
A------------------------------------------------
E------------------------------------------------

e--------3-----------6-----4---------1---3
B--4-----------6-----------4-----4-------0
G--3-----------7-----------5-----1-------0
D--5-----------8-----------6-----3--------
A-----------------------------------------
E-----------------------------------------

e--------------------------------------------------------
B--------------------------------------------------------
G------0---0---0-2-3--0----------------2-0-2---2-4-5--2--
D--------3--------------0----------0--------------------2
A--3-----------------------------------------------------
E--------------------------------------------------------

e------------------1---------------------------------
B----------3-4---3---4--1------------3---------------
G--2--4-5-----------------0-------------3-0-------1-0
D-----------------------------------------------3----
A----------------------------------------------------
E----------------------------------------------------

e--3-----3-----3-----3-----3-----3-----3-----3---
B--5-----5-----5-----5-----4-----4-----4-----4---
G--5-----5-----5-----5-----5-----5-----5-----5---
D------------------------------------------------
A------------------------------------------------
E------------------------------------------------

e--6-----6-----6-----6-----5-----5-----5-----5
B--4-----4-----4-----4-----6-----6-----6-----6
G--3-----3-----3-----3-----5-----5-----5-----5
D---------------------------------------------
A---------------------------------------------
E---------------------------------------------
Login or Register to remove this ad.

7 comments on Sending a Dream into the Universe

Man, I have always wanted to

Man, I have always wanted to find a tab for this. My fave song from FF7. Sounds awesome, too. Great job.

awesome that sounds perfect

awesome that sounds perfect

Consider me a loyal Archard

5

Consider me a loyal Archard cultist! Great tab!

Wow. Just...Wow.

This is incredible. I haven't been looking for this tab, per say, but I'm glad I happened upon it. It's absolutely beautiful. There's only one problem, though. In this part:

e-----------------------1--------------------------------------
B-------------3-4---3---4--1------------3------------------
G--2--4-5--------------------0-------------3-0-------1-0-
D------------------------------------------------------3------
A--------------------------------------------------------------
E--------------------------------------------------------------

You're missing a little something. It should be more like this:

e--------------------------1---------------------------------------
B----------------3-4---3---4--1------------3-------------------
G-2-0-2--4-5--------------------0-------------3-0-------1-0-
D---------------------------------------------------------3-------
A------------------------------------------------------------------
E------------------------------------------------------------------

Slight change to the beginning

Sounds awesome! The only part that doesn't sound right is the first initial chord. I apologize for not being tab-pasting savvy, im new here..

The first chord sounds more accurate when played with those same 5th frets, but change the 4th fret 2nd string to the 3rd fret 5th string, essentially making a power chord. I could be wrong, so feel free to comment.

nice tab man!!!

5

nice tab man!!!

Awesomeness! Sounds exactly

Awesomeness! Sounds exactly like it except maybe the first chord but still love it!