Oppressed People (Final Fantasy VII) Bass Tab

Submitted: Oct 01, 2007 by archard (Last updated: May 07, 2008)

4.666665
Average: 4.7 (6 votes)
Download | Listen
Game: Final Fantasy VII
Composer(s): Nobuo Uematsu
Style: Transcription
Series: Final Fantasy

This song is also called Wall Market

AutoScroll: Slow | Medium | Fast
Oppressed People
Final Fantasy VII
Composed by Nobuo Uematsu

8/23/06

G-----------------------------------
D-----------------------------------
A--1-1-----------2-----1-1---------2
E------1-----2-2-----------1-1-2-2-- x4

G-------------------------------------------------------
D-------------------------------------------------------
A--1-----1-3-0-1-------------1-----1-3-0-1-------------1
E--------------------2---4---------------------2---4----

G-----------------------------------
D-----------------------------------
A--1-1-----------2-----1-1---------2
E------1-----2-2-----------1-1-2-2-- x2

G-------------------------------------
D-------------------------------------
A------2---------2---------2---------2
E--2-2-------2-2-------2-2-------2-2--
Login or Register to remove this ad.

4 comments on Oppressed People

Uh, confused. I can't tell

Uh, confused.
I can't tell where this is in the song o.o
Or what's playing it.

Sounds correct though.

Listen to the MIDI, it's the

Listen to the MIDI, it's the bass that plays throughout the entirety of it.

Nice tabbing, Richard. Keep

5

Nice tabbing, Richard. Keep up the good work.

Never realized how cool this

5

Never realized how cool this bassline was before XD