Off the Edge of Despair (Final Fantasy VII) Guitar Tab

Submitted: Oct 01, 2007 by archard

5
Average: 5 (2 votes)
Download | Listen
Game: Final Fantasy VII
Composer(s): Nobuo Uematsu
Style: Transcription
Series: Final Fantasy

AutoScroll: Slow | Medium | Fast
Off the Edge of Despair
Final Fantasy VII
Composed by Nobuo Uematsu

8/12/06

e--8-----6-4-3-----3-4-6-4-3-1-----1-3-4-3-1---------1-3-1------------------1--4-3
B--------------------------------------------4-----4-------4-3----------3-4-------
G---------------------------------------------------------------------------------
D---------------------------------------------------------------------------------
A---------------------------------------------------------------------------------
E---------------------------------------------------------------------------------

e--8-----6-4-3-----3-4-6-4-3-1-----1-3-4-3-1---------1-3-1------------
B--------------------------------------------4-----4-------4-3--------
G---------------------------------------------------------------------
D---------------------------------------------------------------------
A---------------------------------------------------------------------
E---------------------------------------------------------------------

e--------1-----------
B--4-3-4---4-3-4--3-1
G--------------------
D--------------------
A--------------------
E--------------------

e--6-----4-3-1-----------1-3----------6-----4-3-1---------------1-3
B------------------1-3-4------------------------------1-3-4-3-4----
G------------------------------------------------------------------
D------------------------------------------------------------------
A------------------------------------------------------------------
E------------------------------------------------------------------

e---------------------------------------------------------------4-6-8-10-8
B--4-----3-1-----------1-3-1----------4-----3-1---------------------------
G------------3-----1-3--------------------------3-------------------------
D-------------------------------------------------------------------------
A-------------------------------------------------------------------------
E-------------------------------------------------------------------------
Login or Register to remove this ad.

4 comments on Off the Edge of Despair

Dude, very nice, this site

Dude, very nice, this site is amazing. I'm finding so many tabs I couldn't find anywhere else, yall rock

This is beastly, but please

This is beastly, but please finish the other ones.

where bouts do you hear this

where bouts do you hear this song?

if you mean where you hear

if you mean where you hear this song, it's when Cloud is recovering in Mideel, and in Rocket Town after Shinra No.26 launches.