Ads

Mako Reactor (Final Fantasy VII) Guitar Tab

Submitted: Oct 01, 2007 by archard

5
Average: 5 (3 votes)
Download | Listen
Game: Final Fantasy VII
Composer(s): Nobuo Uematsu
Style: Transcription
Series: Final Fantasy

AutoScroll: Slow | Medium | Fast
Mako Reactor
Final Fantasy VII
Composed by Nobuo Uematsu

8/12/06

This is the part about 50 seconds in...

e--6-5-----1-3-----6-5-1-3----------6-5-----1-3-----6-5-8-6
B----------------------------------------------------------
G----------------------------------------------------------
D----------------------------------------------------------
A----------------------------------------------------------
E----------------------------------------------------------

e--9-8-----4-6-----9-8-4-6----------9-8-----4-6-----9-8-11-9
B-----------------------------------------------------------
G-----------------------------------------------------------
D-----------------------------------------------------------
A-----------------------------------------------------------
E-----------------------------------------------------------
Login or Register to remove this ad.

11 comments on Mako Reactor

You left the best part out

You left the best part out of it.

Hey Richard could you finish

Hey Richard could you finish it somtime soon. I know that you like to be requested for the song to be finished

It needs to be finished, I

It needs to be finished, I can't find the rest anywhere else, so please finish it.

Thank you

That was just wrong,the only

That was just wrong,the only thing that sounded remotely accuarate was the:6-5-8-6

I like this because it is

I like this because it is easy to play, but you need to finish it, I've been searching for this tab forever, and this is the closest I have come to finding it.

God you people are so

God you people are so critical. How about a thank you for richard for taking the time to try and figure this stuff out. Youre awesome dude. Thanks

that sounded perfect on my

that sounded perfect on my guitar, great job.

nothin wrong with it lets

5

nothin wrong with it
lets see you do better
pricks

tabs

okay i will do better with Mako Reactor theme

Really great, I agree would

5

Really great, I agree would like the rest.

Re: Mako Reactor

e|--------------------------------------------------------------------------|
B|--------------------------------------------------------------------------|
G|--------------------------------------------------------------------------|
D|--10-----10-10-10---10--10------------------------------------------------|
A|--10-----10-10-10---10--10------------------------------------------------|
E|---8------8--8--8----8---8------------------------------------------------|

e|----------15-----15-------------------------------------------------------|
B|--------------------------------------------------------------------------|
G|-12-13-15----12-----------------------------------------------------------|
D|--------------------------------------------------------------------------|
A|--------------------------------------------------------------------------|
E|--------------------------------------------------------------------------|

e|----------15-----13/18----15---(15)-(15)-(15)-----------------------------|
B|-----------------------14------(14)-(14)-(14)-----------------------------|
G|-12-13-15----12-----------------------------------------------------------|
D|--------------------------------------------------------------------------|
A|--------------------------------------------------------------------------|
E|--------------------------------------------------------------------------|

e|----------15--------------------------------------------------------------|
B|-----------------16----13-------------------------------------------------|
G|-12-13-15----12-----12----------------------------------------------------|
D|--------------------------------------------------------------------------|
A|--------------------------------------------------------------------------|
E|--------------------------------------------------------------------------|

e|--------------------------------------------------------------------------|
B|----------12-----12-13----12-13-------------------------------------------|
G|-10-12-13-----------------------------------------------------------------|
D|--------------------------------------------------------------------------|
A|--------------------------------------------------------------------------|
E|--------------------------------------------------------------------------|

e|--------------------------------------------------------------------------|
B|-13-13---11-11----13-13---11-11-------------------------------------------|
G|-12-12---10-10----12-12---10-10-------------------------------------------|
D|-10-10----8--8----10-10----8--8-------------------------------------------|
A|--------------------------------------------------------------------------|
E|--------------------------------------------------------------------------|

e|--------------------------------------------------------------------------|
B|-11-10---------11-10-------------11-10-------------11-10-13-11------------|
G|-------10-12---------10-12-------------10-12------------------------------|
D|--------------------------------------------------------------------------|
A|--------------------------------------------------------------------------|
E|--------------------------------------------------------------------------|

e|--------------------------------------------------------------------------|
B|-14-13---------14-13-------------14-13-------------14-13-16-14------------|
G|-------13-15---------13-15-------------13-15------------------------------|
D|--------------------------------------------------------------------------|
A|--------------------------------------------------------------------------|
E|--------------------------------------------------------------------------|
that is the whole song, there are some spaces between some notes"!!