Login or Register to remove this ad.

Main Theme (blitzwater version) (Final Fantasy VII) Guitar Tab

Submitted: Oct 15, 2007 by archard (Last updated: Sep 20, 2009)

4.85185
Average: 4.9 (81 votes)
Download | Listen
Game: Final Fantasy VII
Composer(s): Nobuo Uematsu
Style: Arrangement, Fingerstyle
Series: Final Fantasy

AutoScroll: Slow | Medium | Fast
                                  Main Theme                                    


Track 1
      E  E  E  E  E  E  E  E     E  E  E  E  E  E  E  E   
E||---------------------0-----|--7-----------5-----------|
B||---1-----------3-----------|-----5-----5-----5--------|
G||*-----0-----0-----0-----0--|--------5-----------5-----|
D||*--------2-----------------|-----------------------7--|
A||---3-----------3-----------|--------------------------|
E||---------------------------|--5-----------5-----------|


  E  E  E  E  E  E  E  E     E  E  E  E  E  E  E  E   
--------------------0-----|--3-----1-----------------|
--1-----------3-----------|-----1--------1-----3-----|
-----0-----0-----0-----0--|-----------2-----2-----2--|
--------2-----------------|--3-----------------------|
--3-----------3-----------|--------------------------|
--------------------------|--------------1-----------|


  E  E  E  E  E  E  E  E     E  E  E  E  E  E  E  E   
--------------------0-----|--7-----------5-----------|
--1-----------3-----------|-----5-----5-----5--------|
-----0-----0-----0-----0--|--------5-----------5-----|
--------2-----------------|-----------------------7--|
--3-----------3-----------|--------------------------|
--------------------------|--5-----------5-----------|


  E  E  E  E  E  E  E  E     E  E  E  E  E  E  E  E   
--------------------0-----|--3-----1-----------------|
--1-----------3-----------|-----1--------1-----3-----|
-----0-----0-----0-----0--|-----------2-----2-----2--|
--------2-----------------|--3-----------------------|
--3-----------3-----------|--------------------------|
--------------------------|--------------1-----------|


                                  |--3--|  |--3--|  |--3--|   
  E  E  E  E  E  E  E  E     Q    E  E  E  E  E  E  E  E  E   
--0-----------------------|--0----0--------3--------0--------|
-----0-----------------0--|----------0--------0--------0-----|
--------0-----------0-----|-------------0--------0--------0--|
-----------2-----2--------|----------------------------------|
--3-----------3-----------|-------3--------3-----------------|
--------------------------|----------------------------------|


  |--3--|  |--3--|  |--3--|  |--3--|     |--3--|                  
  E  E  E  E  E  E  E  E  E  E  E  E     E  E  E  Q    Q    Q     
--------------------------------------|--------------------------|
--3-----------------3-----------------|--1--------0---------0----|
-----3-----------3-----3-----------3--|-----0----------2---------|
--------3-----3-----------3-----3-----|--------0-----------------|
--1--------1-----------------1--------|--------------------------|
--------------------------------------|--3-----------------------|


  E  E  E  E  E  E  E  E     E  E  E  E  E  E  E  E   
--------------------0-----|--7-----------5-----------|
--1-----------3-----------|-----5-----5-----5--------|
-----0-----0-----0-----0--|--------5-----------5-----|
--------2-----------------|-----------------------7--|
--3-----------3-----------|--------------------------|
--------------------------|--5-----------5-----------|


  E  E  E  E  E  E  E  E     E  E  E  E  E  E  E  E   
--------------------0-----|--3-----1-----------------|
--1-----------3-----------|-----1--------1-----3-----|
-----0-----0-----0-----0--|-----------2-----2-----2--|
--------2-----------------|--3-----------------------|
--3-----------3-----------|--------------------------|
--------------------------|--------------1-----------|


  E  E  E  E  E  E  E  E     E  E  E  S  S E  E  E  E   
--------------------0-----|--7--------8p-7-5-----------|
--1-----------3-----------|-----5--L----------5--------|
-----0-----0-----0-----0--|--------5-------------5-----|
--------2-----------------|-------------------------7--|
--3-----------3-----------|----------------------------|
--------------------------|--5-------------5-----------|


  E  E  E  E  E  E  E  E     E  E  E  E  E  E  E  E   
--------------------0-----|--3-----1-----------------|
--1-----------3-----------|-----1--------1-----3-----|
-----0-----0-----0-----0--|-----------2-----2-----2--|
--------2-----------------|--3-----------------------|
--3-----------3-----------|--------------------------|
--------------------------|--------------1-----------|


                                  |--3--|  |--3--|  |--3--|   
  E  E  E  E  E  E  E  E     Q    E  E  E  E  E  E  E  E  E   
--0-----------------------|--0----0--------3--------0--------|
-----0-----------------0--|----------0--------0--------0-----|
--------0-----------0-----|-------------0--------0--------0--|
-----------2-----2--------|----------------------------------|
--3-----------3-----------|-------3--------3-----------------|
--------------------------|----------------------------------|


  |--3--|  |--3--|  |--3--|  |--3--|     |--3--|                  
  E  E  E  E  E  E  E  E  E  E  E  E     E  E  E  Q    Q    Q     
--------------------------------------|--------------------------|
--3-----------------3-----------------|--1--------0---------0----|
-----3-----------3-----3-----------3--|-----0----------2---------|
--------3-----3-----------3-----3-----|--------0-----------------|
--1--------1-----------------1--------|--------------------------|
--------------------------------------|--3-----------------------|


                                                    ^                         
  E  E  E  E  E  E  E  E     Q    Q    Q    Q       E  E  E  E   E  E  E  E   
--------------------------|-------0----1----0----|--0--------0h--1-----------|
--1-----------------------|--1-------------------|--3--3--3---------3--------|
-----0-----------------0--|----------------------|--2------------------2-----|
--------2-----------2-----|----------------------|--0---------------------0--|
--3--------3-----3--------|----------------------|---------------------------|
--------------3-----------|----------------------|---------------------------|


  E  E  E  E  E  E  E  E     E   E  E  E  E  E  E  E   
--------------1-----0-----|---------0-----------------|
-----------3-----3-----3--|--1h--3-----1-----------1--|
--------2-----------------|---------------0-----0-----|
-----0--------------------|------------------2--------|
--0-----------------------|--3------------------------|
--------------------------|---------------------------|


  E  E  E  E  E  E  E  E     E  E   E   E  E  E  E  E   
--------------0-----------|--3--1h--3s--5--------------|
-----------1-----1--------|----------------1-----------|
--------0-----------0-----|-------------------2--------|
-----2-----------------2--|--3-------------3-----3-----|
--3-----------------------|-------------------------3--|
--------------------------|----------------------------|


  E  E  E  E  E  E  E  E     E  E  E  E  E  E  E  E   
--------------------------|--------------------------|
--------------1-----0--1--|--1-----------0-----------|
-----------2-----2--------|-----0-----0-----0-----0--|
--------3-----------------|--------0-----------0-----|
-----3--------------------|--------------------------|
--1-----------------------|--3-----------3-----------|


                                                        ^                     
  E  E  E  E  E  E  E  E       E  E  E  E  Q    Q       H        E  E  E  E   
---------------------------||-------------------0----|--7--------5-----------|
--------------0------------||--1-----------3---------|--5-----------5--------|
--2--------------0-----0--*||-----0-----0------------|--5--------------5-----|
-----0-----0--------0-----*||--------2---------------|--------------------7--|
--------2------------------||--3---------------------|-----------------------|
--3-----------3------------||------------------------|--5--------5-----------|


                          ^         ^                                   
  E  E  Q    Q    Q       Q    Q    Q    Q       E  E  E  E  Q    Q     
------------------0----|--3----1--------------|-------------------0----|
--------1----3---------|--1---------1----3----|--1-----------3---------|
-----------------------|--2---------2---------|-----0-----0------------|
-----2-----------------|--3-------------------|--------2---------------|
--3--------------------|----------------------|--3---------------------|
-----------------------|------------1---------|------------------------|


  ^                                               ^         ^          
  H        E  E  E  E     E  E  Q    Q    Q       Q    Q    Q    Q     
--7--------5-----------|------------------0----|--3----1--------------|
--5-----------5--------|--------1----3---------|--1---------1----3----|
--5--------------5-----|-----------------------|--2---------2---------|
--------------------7--|-----2-----------------|--3-------------------|
-----------------------|--3--------------------|----------------------|
--5--------5-----------|-----------------------|------------1---------|


                                  |--3--|  |--3--|  |--3--|   
  E  E  E  E  E  E  E  E     Q    E  E  E  E  E  E  E  E  E   
--0-----------------------|--0----0--------3--------0--------|
-----0-----------------0--|----------0--------0--------0-----|
--------0-----------0-----|-------------0--------0--------0--|
-----------2-----2--------|----------------------------------|
--3-----------3-----------|-------3--------3-----------------|
--------------------------|----------------------------------|


  |--3--|  |--3--|  |--3--|  |--3--|     |--3--|                  
  E  E  E  E  E  E  E  E  E  E  E  E     E  E  E  Q    Q    Q     
--------------------------------------|--------------------------|
--3-----------------3-----------------|--1--------0---------0----|
-----3-----------3-----3-----------3--|-----0----------2---------|
--------3-----3-----------3-----3-----|--------0-----------------|
--1--------1-----------------1--------|--------------------------|
--------------------------------------|--3-----------------------|


                             ^                  
  E  E  E  E  E  E  E  E     W                  
--------------------------|-------------------||
--1-----------------------|--1----------------||
-----0-----------------0--|-------------------||
--------2-----------2-----|--2----------------||
--3--------3-----3--------|--3----------------||
--------------3-----------|-------------------||




Duration Legend
---------------
W - whole
H - half
Q - quarter
E - 8th
S - 16th
T - 32nd
X - 64th
. - note dotted
|-n-|  - n-tuplets
Login or Register to remove this ad.

31 comments on Main Theme (blitzwater version)

AWESOME I love this song so

AWESOME I love this song so does my GF (don't get one their demanding) :)

This is the tab for the

This is the tab for the blitzwater video, for those interested (search engine people).

Thanks David, great tab.

u obviously dont have a gf

u obviously dont have a gf or u wudnt say that

great tab btw sounds rly

great tab btw sounds rly clear

NICE TAB!

NICE TAB!

Thank you so much whoever

Thank you so much whoever put this tab up i love this song, i shall please many hunnies with it in the future.

wat is a tuplet?

wat is a tuplet?

It's a way of showing a

It's a way of showing a special kind of note duration. For example if you have two 8th notes next to each other they make up one beat, each one getting half of the beat. The next higher note duration are 16th notes, each one getting a quarter of a beat, so there are 4 of those that make up one beat. But what if you want something in between those two? What if you want 3 notes instead of 2 or 4? What if you want 5 notes in one beat? or 6? That's where tuplets come in.

For example, if you were to count 8th notes out loud you would say "1 and 2 and 3 and 4 and" which make 8 notes. If you were to count 8th note triplets (triplet meaning a grouping of 3 notes, you can also have quintuplets, sextuplets, etc.) you would count it "1-pul-let 2-pul-let 3-pul-let 4-pul-let," making sure that each part is equally spaced.

To sum it up it's a way of putting a group of notes in the space of one beat. You'll see it notated as a bracket over the specific notes with a number, telling you what kind of tuplet it is.

This is a great song and

This is a great song and looks to be a great tab. I just wish I could read guitar tabs.

Actually, I just learned how

Actually, I just learned how to read tabs from this site, I just have troubles with my fingering and the tempo. I just can't keep up yet.

i've been playing a little

i've been playing a little under a year.. and i've been looking forward to the day when i could finally learn this song... it today was the day ahaha.. i learned i cheap version i while back to satisfy the appatite.. but now its gone ahaha.. and just wondering... how long would you other guitar players say it took you to be on this level... just curious... thnx for tabbin it!!!

I've been playing less than

I've been playing less than a year. But i'm obsessed w/
classical guitar and play at least an hour every day,
usually more when i'm stoned. ;)

heh

i can relate to that

almost two years

almost two years

what does L mean?!

what does L mean?!

Yes, what DOES 'L' mean?

Yes, what DOES 'L' mean?

the L means that the notes

the L means that the notes are linked

it took me since i guess...

it took me since i guess... late september which is when i started to play guitar ( lets just say i started to play at around when halo 3 came out) till mid december

This is truly an amazing

5

This is truly an amazing piece of work. I never knew the c chord held the beginning of this song.

omfg you guys turn me on so

omfg you guys turn me on so hard

Hey, what do the asterisks

Hey, what do the asterisks on the D and G strings mean????????

It means you have play this

It means you have play this part twice (there are asterisks for the begining and ending of this twice played part).

"small"-example:

E|-0-1-2-4-:-4-2-1:|

here you play the 4-2-1 part twice.

great tab/song

5

great tab/song

Thanks david this is a

Thanks david this is a really amazing and fun tab

download

5

This is an awsome song, but with the old page layout there was an option to download the guitar pro tabs for this piece of art, does anyone either have a copy or point out where I can download it again please :D

here

It still on the site, its part of the .zip file, which includes the txt tab, the midi, the .gp5 file, and something else

thank you

5

great tab

Great tab. Thanks!

5

Great tab. Thanks!

Awesome

5

What a great arrangement! This is the first tab that drew me to this website, which was probably a year ago. At that time I had a bit of trouble with this song, mainly due to bar chord F and fingerpicking. It has since been a year that I've been playing guitar, and I can play this song nicely now! Big thanks to archard for tabbing this.

Edit: I've noticed a few differences between the tab and the video. in the very first part of the song, the first half of the first line of the tab, the song has a few variations:

variation 1

E||---------------------0-----|
B||---1-----1-----3-----------|
G||------0-----0-----0-----0--|
D||---------------------------|
A||---3-----------3-----------|
E||---------------------------|

variation 2

E||---------------------0-----|
B||---1-----1-----3-----------|
G||------------------------0--|
D||------2-----2-----2--------|
A||---3-----------3-----------|
E||---------------------------|

and variation 3 which is the one used throughout the tab:

E||---------------------0-----|
B||---1-----------3-----------|
G||------0-----0-----0-----0--|
D||---------2-----------------|
A||---3-----------3-----------|
E||---------------------------|

The order he plays it seems to be 1232 3232 and
he continues to use variation 2 throughout the song 
during the second repetition. 
I could be wrong; I'm only a novice. Thought that I would point this out 
for people who were confused as I was.

Not so bad!

5

Was easier to play then I thought, picked it up fairly quick.

`

5

hey, I've uploaded a new video based on this tab, pls check it on my channel
www.youtube.com/manccurt