Ads

Judgement Day (Final Fantasy VII) Guitar Tab

Submitted: Jan 15, 2008 by archard

5
Average: 5 (1 vote)
Download | Listen
Game: Final Fantasy VII
Composer(s): Nobuo Uematsu
Style: Transcription
Series: Final Fantasy

This song is also called North Crater

AutoScroll: Slow | Medium | Fast
Judgement Day
Final Fantasy 7
Composed by Nobuo Uematsu

1/15/08



     H        Q.     E     H.           E  E     H.           Q     
E||---------------------|---------------------|--------------------|
B||---------------------|---------------------|--------------------|
G||------------------7--|--6------------L--7--|--9------------7----|
D||------------------7--|--6------------L--7--|--9------------7----|
A||------------------5--|--4------------L--5--|--7------------5----|
E||---------------------|---------------------|--------------------|


  W                   H        Q.     E     H.           E  E   
-------------------|---------------------|---------------------|
-------------------|---------------------|---------------------|
--4----------------|------------------7--|--6------------L--7--|
--4----------------|------------------7--|--6------------L--7--|
--2----------------|------------------5--|--4------------L--5--|
-------------------|---------------------|---------------------|


  H.            Q        W                     W                 
---------------------|--------------------||--------------------|
---------------------|--------------------||--------------------|
--9------------10----|--11----------------||*-------------------|
--9------------10----|--11----------------||*-------------------|
--7-------------8----|---9----------------||--------------------|
---------------------|--------------------||--------------------|


  Q    Q    E   Q    E     E   E  H.              Q    Q     E   Q    E   
------------------------|----------------------|-------------------------|
------------------------|----------------------|-------------------------|
------------------------|----------------------|-------------------------|
------------------------|-----11--7------------|----------------------9--|
---------------------7--|--9-------------------|-------9----10--12-------|
-------7----9--10-------|----------------------|-------------------------|


   Q     H.              W                   W                 
----------------------|-------------------|-------------------|
----------------------|-------------------|-------------------|
----------------------|-------------------|-------------------|
--11----12------------|-------------------|-------------------|
----------------------|-------------------|-------------------|
----------------------|-------------------|-------------------|


   Q     Q.     E   E  E      E   E  H.               Q     Q.     E   E   E   
--------------------------|-----------------------|---------------------------|
--------------------------|-----------------------|---------------------------|
--------------------------|-----------------------|---------------------------|
--11-------------------9--|--11--12--9------------|--11-----------------------|
--------12------9--12-----|-----------------------|--------12------9--10--12--|
--------------------------|-----------------------|---------------------------|


   E  E   H.              W                    E.  S Q.     E  E   E   
-----------------------|-------------------|--------------------------|
-----------------------|-------------------|--------------------------|
-----------------------|-------------------|--------------------------|
------9----------------|-------------------|-------------------7------|
--12-----10------------|-------------------|--10---9-7------7-----10--|
-----------------------|-------------------|--------------------------|


  W                    E.   S Q.     E  E   E     W                 
-------------------|---------------------------|-------------------|
-------------------|---------------------------|-------------------|
-------------------|---------------------------|-------------------|
--7----------------|--------------------9------|--9----------------|
-------------------|--12---11-9------9-----12--|-------------------|
-------------------|---------------------------|-------------------|


  H        Q    E  E      H         E   E   E   E     E   E   H        E   E   
----------------------|----------------------------|--------------------------|
----------------------|----------------------------|--------------------------|
----------------------|----------------------------|--------------------------|
--L-------------------|----------------------------|-----11------------9--11--|
----------------------|----------------------------|--9------12---------------|
----------------7--9--|--10---------L--10--10--12--|--------------------------|


   Q    H        S  E   S     Q    H.              H        Q    E   E   
--------------------------|---------------------|-----------------------|
--------------------------|---------------------|-----------------------|
-----------------9--------|---------------------|-----------------------|
--12----9----------12--11-|--12----9------------|--L-------------9--11--|
--------------------------|---------------------|-----------------------|
--------------------------|---------------------|-----------------------|


   Q    H.              H.           S  E   S    W                 
---------------------|------------------------|-------------------|
---------------------|------------------------|-------------------|
---------------------|---------------9--------|-------------------|
--12----9------------|--L--------------12--11-|--9----------------|
---------------------|------------------------|-------------------|
---------------------|------------------------|-------------------|


  W                   
--------------------||
--------------------||
-------------------*||
--L----------------*||
--------------------||
--------------------||




Duration Legend
---------------
W - whole
H - half
Q - quarter
E - 8th
S - 16th
T - 32nd
X - 64th
. - note dotted
|-n-|  - n-tuplets


Tablature Legend
----------------
L - tied note
Login or Register to remove this ad.

3 comments on Judgement Day

Wow thaks alot, you tabbed

5

Wow thaks alot, you tabbed that pretty fast, and it sounds very good to ^^

what does tied note mean?

what does tied note mean? (sorry but i just got into guitar)

It means tied note.

It means tied note. Essentially that means hold down the previous note.