Infiltrating Shinra Tower (Final Fantasy VII) Guitar Tab

Submitted: Oct 01, 2007 by archard

5
Average: 5 (3 votes)
Download | Listen
Game: Final Fantasy VII
Composer(s): Nobuo Uematsu
Style: Transcription
Series: Final Fantasy

AutoScroll: Slow | Medium | Fast
Infiltrating Shinra Tower
Final Fantasy VII
Composed by Nobuo Uematsu

8/18/06

e------0---1-3-5-7-9------------------------------1-3-5-7
B--3------------------------------------1---3---4--------
G--------------------------------------------------------
D--------------------------------------------------------
A--------------------------------------------------------
E--------------------------------------------------------

e--------------0-2-4--------------------0---2---3-5-7-9-11
B----------1-3--------------------------------------------
G--2---4--------------------------------------------------
D---------------------------------------------------------
A---------------------------------------------------------
E---------------------------------------------------------
Login or Register to remove this ad.

4 comments on Infiltrating Shinra Tower

sounds good

sounds good

Pretty good, keep up the

Pretty good, keep up the good work.

hey u got the best tab of

hey u got the best tab of final fantasy

Really good!

At first it didn't look right, but when I played it, it sounded great!