Holding My Thoughts in My Heart (Final Fantasy VII) Guitar Tab

Submitted: Jul 10, 2006 by archard (Last updated: Jul 22, 2008)

4.363635
Average: 4.4 (11 votes)
Download | Listen
Game: Final Fantasy VII
Composer(s): Nobuo Uematsu
Style: Transcription
Series: Final Fantasy

AutoScroll: Slow | Medium | Fast
Holding My Thoughts In My Heart
Composed by Nobuo Uematsu


7/10/06

e-----------8-6-------5-3
B--6---8-10-----6--------
G-----------------6-5----
D------------------------
A------------------------
E------------------------

The next part is basically the same thing but 5 frets up.

e-------------13-11----------10-8
B--11---13-15-------11-----------
G----------------------11-10-----
D--------------------------------
A--------------------------------
E--------------------------------

e----------8---6--------------------------
B--------6---------------6-9-7-------6----
G--6---8-------------6-8-------6-8-------6
D-----------------------------------------
A-----------------------------------------
E-----------------------------------------

e--13--11--9--9--8--6--9--9
B--------------------------
G--------------------------
D--------------------------
A--------------------------
E-------------------------- x2

e---------------------------------------
B---------------------------------------
G----------8---6------------------------
D--------6---------------6-9-7-----6----
A--7---9-------------7-9-------7-9-----7
E---------------------------------------

e--12-10-8-10-12-10-8-10-12-11-9-11-12-11-9-11-
B----------------------------------------------
G----------------------------------------------
D----------------------------------------------
A----------------------------------------------
E----------------------------------------------

e--12-10-8-10-12-10-8-10-12-11-9-11-12
B-------------------------------------
G-------------------------------------
D-------------------------------------
A-------------------------------------
E-------------------------------------
Login or Register to remove this ad.

4 comments on Holding My Thoughts in My Heart

5/5 good

5/5 good

Excellent

5

Excellent

best song on the game :D

5

best song on the game :D

thnx man

5

thnx man 6/5