Login or Register to remove this ad.

Great Warrior (Final Fantasy VII) Guitar Tab

Submitted: Oct 01, 2007 by Kabukibear (Last updated: Nov 27, 2009)

4.75
Average: 4.8 (20 votes)
Download | Listen
Game: Final Fantasy VII
Composer(s): Nobuo Uematsu
Style: Arrangement, Fingerstyle, Pinch harmonics
Series: Final Fantasy

AutoScroll: Slow | Medium | Fast
Great Warrior
~Final Fantasy VII~
Composed By: Nobuo Uematsu
Arranged By: Justin Lincoln

bpm=90
     ^                       ^                   ^
     Q    Q    E  Q    E     W                   Q    Q    E  Q    E
E||--0----0----0--2----0--|-------------------|--0----0----3--2----0--|
B||--0--------------------|--3----------------|--0--------------------|
G||--0--------------------|--4----------------|--0--------------------|
D||--2--------------------|--5----------------|--2--------------------|
A||------------2----------|--5----------------|------------2----------|
E||-----------------------|-------------------|-----------------------|

  ^
  W                   E  E  E  E  E  Q.        E  E  E  E  E  Q.
-------------------|------------------------|------------------------|
--3----------------|-----------------0------|--1--------0--1--3------|
--4----------------|--2--------0--2---------|--------------2---------|
--5----------------|-----------2--3---------|--------0--4------------|
--5----------------|-----0--3---------------|-----0------------------|
-------------------|--1---------------------|--2---------------------|

              Rall.---------------bpm=70    bpm=90
                          ^                    ^
  E  E  E  E  H           H        H           Q    Q    E  Q    E
-----------------------|--------------------|--0----0----0--2----0--|
--0--------------------|--------------------|--0--------------------|
--------------0--------|--2-----------------|--0--------------------|
--------0--4-----------|--2--------1--------|--2--------------------|
-----2-----------------|--------------------|------------2----------|
--3--------------------|--2-----------------|-----------------------|

  ^                   ^                       ^
  W                   Q    Q    E  Q    E     W
-------------------|--0----0----3--2----0--|-------------------|
--3----------------|--0--------------------|--3----------------|
--4----------------|--0--------------------|--4----------------|
--4----------------|--2--------------------|--4----------------|
--2----------------|------------2----------|--2----------------|
-------------------|-----------------------|-------------------|

  E  E  E  E  E  Q.        E  E  E  E  E  Q.        E  E  E  E  H
------------------------|------------------------|--0--------------------|
-----------------0------|--1--------0--1--3------|-----------------------|
--2--------0--2---------|--------------0---------|--------------2--------|
--------------2---------|-----------2------------|--------0--4-----------|
--------0--3------------|--------3---------------|-----0-----------------|
-----0------------------|-----3------------------|-----------------------|

  E  E  E  E  E  E  Q       E  E  E  E  E  E  E  E     E  E  E  E  E  E  E  E
--------3-----2----------|--0-----------------------|--------------------------|
--------1--0--------3----|--0-----------0-----------|--------------------------|
-----0--------2--0-------|--0--------0-----0--------|--0--------2--------0-----|
--------------------4----|--------2-----------2-----|-----2--------2--------2--|
--3----------------------|-----2-----------------2--|--------2--------2--------|
-------------------------|--0-----------------------|--------------------------|

  E  E  E  E  E  E  E  E     E  E  E  E  E  E  E  E
--------------0-----------|--------------------------|
--2--------2-----2--------|--2--------3--------2-----|
--0-----0-----------0-----|-----0--------0-----------|
-----2-----------------2--|--------2--------2-----2--|
--0-----------------------|--------------------------|
--------------------------|--------------------------|

  E  E  E  E  E  E  E  E     E  E  E  E  E  E  E  E
--0-----------------------|--------------------------|
--0-----------0-----------|--------------------------|
--0--------0-----0--------|--0--------2--------0-----|
--------2-----------2-----|-----2--------2--------2--|
-----2-----------------2--|--------2--------2--------|
--0-----------------------|--------------------------|

                                                      ^          ^
  E  E  E  E  E  E  E  E     E  E  E  E  Q    Q       Q    E  E  E   E  E  E
--------------0-----------|--------------2---------|--7----7-----7--10-----7--|
--2--------2-----2--------|--4--------4------------|--5----5-----7------------|
--0-----0-----------0-----|--4-----4---------------|--5----5-----7------------|
-----2-----------------2--|-----4------------------|--------------------------|
--0-----------------------|--2---------------------|--0-------0---------------|
--------------------------|------------------------|-------------7------7-----|

  ^          ^            ^                      ^
  Q    E  E  Q    Q       Q    Q    Q    Q       H        S S S S S S S S
--5----------3----2----|--0-------------------|--0--------------------0-3-|
--0----0-----0---------|--2-------------------|--0------------------0-----|
--0----0-----0---------|--2---------0----2----|--0----------------0-------|
-------------0---------|-------4--------------|--2--------------2---------|
--3-------3------------|--0-------------------|--2------------2-----------|
-----------------------|----------------------|--0--------0-3-------------|

  ^          ^               ^          ^            ^
  Q    E  E  E   E  E  E     Q    E  E  Q    Q       Q    Q    Q    Q
--7----7-----7--10-----7--|--5----------3----2----|--0-------------------|
--5----5-----7------------|--0----0-----0---------|--2-------------------|
--5----5-----7------------|--0----0-----0---------|--2---------0----2----|
--------------------------|-------------0---------|-------4--------------|
--0-------0---------------|--3-------3------------|--0-------------------|
-------------7------7-----|-----------------------|----------------------|

             NH(Pinched)  ^                       ^
  H           H           Q    Q    Q    E  E     E  Q.     E  E  E  E
-------------12--------|--0----0----0----------|--0--3---------3--5--3--|
-----------------------|--0-----------------3--|--1---------------------|
-----------------------|--0--------------------|--0---------------------|
--2--------------------|--2--------------0-----|------------------------|
-----------------------|-----------------------|--3---------2-----------|
-----------------------|-----------------------|------------------------|

  ^         ^              ^                    ^
  Q    Q    E  E  E  E     H        H           Q    Q    Q    E  E
--7----7----7--5--3--5--|--7--------5--------|--4----4----4-------2--|
--5---------0-----------|--8--------7--------|--4--------------------|
--5---------0-----------|--7-----------------|--4--------------------|
------------------------|--0-----------------|-----------------------|
--0---------------------|--------------------|-----------------------|
------------0-----------|--------------------|--4--------------2-----|

  Rall.----------------------------------------------------------
  ^                      ^         ^            ^
  E  H        E  Q       Q    Q    Q.     E     W
--4--7--------L-------|--4----4----4------2--|--4----------------|
--5-------------------|--5---------2---------|--5----------------|
--4-------------------|--4---------3---------|--4----------------|
----------------------|------------1---------|-------------------|
-----------------6----|--4-------------------|-------------------|
--0-------------------|----------------------|--0----------------|

-------------------------bpm=50
  ^         ^            ^
  Q    Q    Q.     E     W
--4----4----4------2--|--4----------------||
--5---------2---------|--4----------------||
--4---------3---------|--5----------------||
------------1---------|--6----------------||
--4-------------------|--6----------------||
----------------------|--4----------------||

Duration Legend
---------------
W - whole
H - half
Q - quarter
E - 8th
S - 16th
T - 32nd
X - 64th
. - note dotted
|-n-|  - n-tuplets

Tablature Legend
----------------
L - tied note
NH(Pinched) - natural harmonic where the index
finger of the right hand is placed on the
fret that is getting the harmonic and the thumb
plucks the string as the index
finger lifts off in a pinching motion.

^ - brush up
Rall.- Gradually get slower until next tempo change.
Login or Register to remove this ad.

4 comments on Great Warrior

Oh wow... This is amazingly

Oh wow... This is amazingly tabbed. Great work Kabuki.

I knew it was a good idea

I knew it was a good idea coming back to this site to see if you had any more tabs. I loved learning your wind scene and am looking forward to learning this one. Congratulations on yet another marvelous piece. Your tabbing style gets me so excited ^_^

GAAHHHHH this song is so

GAAHHHHH this song is so hard to play but sooooo coool!!!!

Just

5

To get people looking at it again