Ads

Great Warrior (Final Fantasy VII) Guitar Tab

Submitted: Oct 01, 2007 by archard

5
Average: 5 (12 votes)
Download | Listen
Game: Final Fantasy VII
Composer(s): Nobuo Uematsu
Style: Transcription
Series: Final Fantasy

AutoScroll: Slow | Medium | Fast
Great Warrior
Final Fantasy VII
Composed by Nobuo Uematsu

8/14/06

e--0-0-0-2--0-------0-0-3-2--0--------------------------------
B-------------3----------------3-------------0---1---0-1-3---0
G------------------------------------2---0-2------------------
D-------------------------------------------------------------
A-------------------------------------------------------------
E-------------------------------------------------------------

e--0-0-0-2--0-------0-0-3-2--0-------------------------------0-----3-2---0
B-------------3----------------3-------------0---1---0-1-3-------------3--
G------------------------------------2---0-2------------------------------
D-------------------------------------------------------------------------
A-------------------------------------------------------------------------
E-------------------------------------------------------------------------

e--------0-2-0-----3-0---5-0---3-0-----------0----------------------
B------0-------0-------0-----0-------------2---2-----2-----3-----2--
G----0-----------0-----------------------2-------2-----2-----2-----2
D--2-----------------------------------2-----------2-----2-----2----
A------------------------------------0------------------------------
E-------------------------------------------------------------------

e--------0-2-0-----3-0---5-0---3-0-----------0---------------2------
B------0-------0-------0-----0-------------2---2---------0-3---3-0--
G----0-----------0-----------------------2-------2------------------
D--2-----------------------------------2-----------2---4-----------4
A------------------------------------0---------------2--------------
E-------------------------------------------------------------------

e---------------------------------------------------------
B--0-0-0-3--0-------------------------0-0-0-3--0----------
G-------------2---0-------------0-2--------------2---0----
D-------------------4-2-----2-4------------------------4-2
A---------------------------------------------------------
E---------------------------------------------------------

e--0-0-0-----0-3---3-5-3-7-7-7-5-3-5-7----------4-4-4---2-4-7-----4-4-4---2-4
B----------3-----------------------------------------------------------------
G----------------------------------------------------------------------------
D----------------------------------------------------------------------------
A----------------------------------------------------------------------------
E----------------------------------------------------------------------------
Login or Register to remove this ad.

29 comments on Great Warrior

dude, that sounds wrong,

dude, that sounds wrong, like really wrong

You suck, you need to fix it

You suck, you need to fix it if its wrong :P

What's wrong with it?

What's wrong with it?

i don't know why people are

i don't know why people are saying it is wrong. sounds perfect if you ask me . maybe they think it is the song that plays wile you are in the canyon. (for yons that think it is cosmo canyon song it isnt its actualy the song that is played after the gi caves.when red xiii see's his father seto) =)

Play it right and it sounds

Play it right and it sounds right, good work! Note to everyone, this is the lead tune, not the whole orchestra... Play the rest of the music in your heads people!

This is great! Perfect tab!

This is great! Perfect tab! Thanks.

This doesn't sound wrong at

This doesn't sound wrong at all. Sounds pretty much perfect.

they probably thought it was

they probably thought it was supposed to be cosmo canyon theme

Sounds perfect to me! Great

Sounds perfect to me! Great job!

Well probably they mixed it

Well probably they mixed it up cause this song is runned twice in the game on diffrent tones.

Perfect tab. I Think most

Perfect tab.

I Think most people saying it's wrong Think it's the Cosmo Canyon theme.. it isn't. It's when Red sees his father.

Maybe u need to play it on

Maybe u need to play it on guitar . i played it and it sounded perfect!

sounds fine to me i dont

sounds fine to me i dont know what you all are talking about

sounds great to me, exactly

sounds great to me, exactly like the song

Its gr8 t4b u ppl are

Its gr8 t4b u ppl are sooooooo stupid , if u fail to understand this, is coz u r probs shite at guitar!

Sounds wonderful, took a

Sounds wonderful, took a moment to time it right but damn if it doesn't sound nice. You people who think it's off either are thinking of a different tune or need to get your ears checked.

rite peeps 1st things 1st 1)

rite peeps 1st things 1st
1) learn to play guitar
2) learn to TUNE a guitar
3)play it with the piece of music playing
4) you all suck if you think its wrong!

laters

hey i dont know how to tune

hey i dont know how to tune my guitar too good lol >_<

p.s. this sounds almost perfect! =D

but thats what electric

but thats what electric tuners are for. XD

I'm just learning the guitar

5

I'm just learning the guitar and this is a perfect piece to get me started... thanks a lot for the tabs, they sounds just right!

Dude, your amazing. You

5

Dude, your amazing. You should be putting on concerts and shit to earn yourself some easy cash for what you enjoy! And I'm better since you can tab this shit, you can certainly play it amazingly! (I'd enjoy to hear your thoughts on my thought!)

I'm betting*, excuse me for

5

I'm betting*, excuse me for the typo there.

seto

This song is a real tear jerker..I thought the scene its from was way more emotional than aeris' death. she never even did anything really..besides run from the shinra then [SPOILER] get pwned by sephy.

I wonder if you even spoiled

I wonder if you even spoiled anything for anyone by saying that. ^_~

nah

nah, i doubt i spoiled it for anyone. its mostly for gamer etiquette in the rare case that someone would look up tabs for a song they havent beat yet..highly unlikely.

Seto

This is the song played when you see seto, not the song when in cosmo canyon. It sounds pefectly fine.

how the hell is this wrong?

5

how the hell is this wrong? you can't call yourself Final Fantasy fans if you think this is wrong. this is pretty much right so if you think it's wrong then you suck. nice tab man!!!

Correction

I think this sounds more right:


e--------0-2-0-----3-0---5-0---3-0-----------0---------------2------
B------0-------0-------0-----0-------------2---2-----------4--------
G----0-----------0-----------------------2-------2-------4----------
D--2-----------------------------------2-----------2---4------------
A------------------------------------0---------------2--------------
E-------------------------------------------------------------------

e--7-7-7-10-7---------0-----0-----------7-7-7-10-7---------0-
B-------------10--8-7---------7-8-10---------------10--8-7---
G------------------------------------------------------------
D------------------------------------------------------------
A------------------------------------------------------------
E------------------------------------------------------------

This sounds wrong:


e--------0-2-0-----3-0---5-0---3-0-----------0---------------2------
B------0-------0-------0-----0-------------2---2---------0-3---3-0--
G----0-----------0-----------------------2-------2------------------
D--2-----------------------------------2-----------2---4-----------4
A------------------------------------0---------------2--------------
E-------------------------------------------------------------------

e---------------------------------------------------------
B--0-0-0-3--0-------------------------0-0-0-3--0----------
G-------------2---0-------------0-2--------------2---0----
D-------------------4-2-----2-4------------------------4-2
A---------------------------------------------------------
E---------------------------------------------------------

Sounds perfectly right to me!

Sounds perfectly right to me!