Ads

Flowers Blooming in the Church (Final Fantasy VII) Guitar Tab

Submitted: Oct 01, 2007 by archard (Last updated: May 07, 2008)

4.642855
Average: 4.6 (14 votes)
Download | Listen
Game: Final Fantasy VII
Composer(s): Nobuo Uematsu
Style: Transcription
Series: Final Fantasy

AutoScroll: Slow | Medium | Fast
Flowers Blooming in the Church
Final Fantasy VII
Composed by Nobuo Uematsu

8/10/06

e----0-5-----3-0---------0-5--4-7--5--2-4-0------------
B--2-------------0-----2----------------------0--------
G------------------------------------------------------
D------------------------------------------------------
A------------------------------------------------------
E------------------------------------------------------

e----0-5-----3-0--------------------
B--2-------------0------------------
G----------------------2-----3--2--1
D-----------------------------------
A-----------------------------------
E-----------------------------------

e----------------0-----2-4-5-----2-----0-2-0-
B----0-2-----2-3---------------------3-------
G--2-----------------------------------------
D--------------------------------------------
A--------------------------------------------
E--------------------------------------------

e--0---------2-0-------0---------2-4-5
B----2-------------------2------------
G------1---------2---------1----------
D-------------------------------------
A-------------------------------------
E-------------------------------------

e--5--4--2--0----------------5--4--2--4-----9-9--------
B-----------------2------------------------------------
G------------------------------------------------------
D------------------------------------------------------
A------------------------------------------------------
E------------------------------------------------------

e--5--4--2--0-----------------------2-0---5------2-0
B-----------------0-----3-2-0-----------3-----3-----
G-----------------------------2---------------------
D---------------------------------------------------
A---------------------------------------------------
E---------------------------------------------------
Login or Register to remove this ad.

12 comments on Flowers Blooming in the Church

nice tab this sounds great,

nice tab this sounds great, its easy too. Thanx

Great! Thanks!

Great! Thanks!

nice tab thx.

nice tab thx.

if you look around on

if you look around on youtube, this is what they call aerith's theme.... doesnt sound too bad on electric with some distortion

They already have an Aeris'

They already have an Aeris' Theme, suffer7fold.
This is a different version that's played in the church you meet Aeris in.

Something wrong with the end

Something wrong with the end of that:

e----0-5-----3-0--------------------
B--2-------------0------------------
G----------------------2-----3--2--1
D-----------------------------------
A-----------------------------------
E-----------------------------------

Ouch. Sorry, it's ok :D

Ouch. Sorry, it's ok :D

Nice, its easy, sounds good,

Nice, its easy, sounds good, and great for begginers like me. Thanks.

great tab

5

great tab

Great Job

5

Great job on the tab, sounds perfect.

loove it man

this is awesome i love yu archard for all these awesome tabs youve made TuT

:D

5

one of the best beginner tabs here. great job.