Farmboy (Final Fantasy VII) Guitar Tab

Submitted: Oct 01, 2007 by archard

4.333335
Average: 4.3 (12 votes)
Download | Listen
Game: Final Fantasy VII
Composer(s): Nobuo Uematsu
Style: Transcription
Series: Final Fantasy

AutoScroll: Slow | Medium | Fast
Farm Boy
Final Fantasy VII
Composed by Nobuo Uematsu

8/18/06

e-----------------------------------------------------
B--------------1--0----------------0------------------
G--------0----------2-0------0-------2-0---2-0--------
D--0-2-4---0--------------4--------------4------------
A-----------------------------------------------------
E-----------------------------------------------------

e-----------------------------
B--------------1--0-----------
G--------0----------2-0------0
D--0-2-4---0--------------4---
A-----------------------------
E-----------------------------

e---------------------------------------------------------------
B--------0-------1-0-------------0-1-3---------0---0-1----------
G--0-0-2---0---------0-2---2-0-2-------0---0-2---2--------------
D--------------0---------------------------------------4---4-2-4
A---------------------------------------------------------------
E---------------------------------------------------------------

e-----------------------------------------------------
B--------0---0-----------------------0----------------
G--0-0-2-------0-------0-0-2---2-0-2---0-------------0
D----------------0-2---------------------0-2---2-0-2--
A-----------------------------------------------------
E-----------------------------------------------------

e----------0---------------------------------------
B--3-0---------3-1----------1-------3-----1-0-----0
G------0----------------------0---------2-------2--
D--------3----------------------1-0----------------
A--------------------------------------------------
E--------------------------------------------------

e----------0-----------------------------------------------------
B--0-----0---3-0-----0---0---0-3-0----------1---1-0---0---0---0-3
G------2-----------2-------2------------------------2-------2----
D----------------------------------------------------------------
A----------------------------------------------------------------
E----------------------------------------------------------------

e-----------------------------------------------------
B--------0---0-----------------------0----------------
G--0-0-2-------0-------0-0-2---2-0-2---0-------------0
D----------------0-2---------------------0-2---2-0-2--
A-----------------------------------------------------
E-----------------------------------------------------
Login or Register to remove this ad.

13 comments on Farmboy

I'm new to the site and I'm

I'm new to the site and I'm just letting you know that the midi link leads to a bass tab for this song.

Thanks for pointing that

Thanks for pointing that out. Fixed.

Welcome to the site by the way.

great tab

great tab

Nice I really like this tab

Nice I really like this tab

worst tab, your a piece of

worst tab, your a piece of shit

fuck up jester, nah man

fuck up jester, nah man sweet tab, spot on hey
Ta for it

Looks like Jester needs to

Looks like Jester needs to go back to guitar class.

great tab:great game: great

great tab:great game: great song XD

Great tab!

5

Great tab!

yep, this tab is badass.

yep, this tab is badass. i'm adding chords. (yes this is what i do with my spare time, what of it!?)

Greatness

5

Greatness

Chords

3

Where is the full acoustic version with finger picking?
Anyway, here are the chords for this song:

D - C - G ~ x2
G - G7 - C - A7
G - Em - Am - D7
G - G7 - C - A7
G - C - G ~

G - G7 - C ~
Cm - D7 - G ~
Em - Bm - Em - Bm
C - A7 - Eb7 - D7
G - G7 - C - A7
G - C - G ~

Great

5

Nice tab XD