Login or Register to remove this ad.

Descendant of Shinobi (Final Fantasy VII) Guitar Tab

Submitted: Oct 01, 2007 by Kabukibear (Last updated: Sep 15, 2009)

4.90909
Average: 4.9 (55 votes)
Download | Listen
Game: Final Fantasy VII
Composer(s): Nobuo Uematsu
Style: Arrangement, Fingerstyle
Series: Final Fantasy

This song is also called Yuffie's Theme

AutoScroll: Slow | Medium | Fast
Descendant of the Shinobi
~Final Fantasy VII~
Composed by: Nobuo Uematsu
Arranged by: Justin Lincoln

bpm=108
With a Swing Feel

      E  E  E  E  E  E  E  E     E  E  E  E  E  E  E  E
E||---------------------------|--------------------------|
B||---------------------------|--------------------------|
G||*--------0-----------0-----|--------0-----------0-----|
D||*-----0-----0-----0-----0--|-----2-----2-----0-----0--|
A||---------------2-----------|--0-----------2-----------|
E||---3-----------------------|--------------------------|

  E  E  E  E  E  E  E  E     E  E  E  E  E  E  E  E
--------------------------|--------------------------|
--------------------------|-----------------------0--|
--------0-----------0-----|--------0--------0--2-----|
-----0-----0-----0-----0--|-----2-----2--------------|
--------------2-----------|--0-----------2-----------|
--3-----------------------|--------------------------|

                             |--3--|
  E  E  E  E  E  E  E  E     E  E  E  E  E  E  E  E  E
--------------------------|-----------------------------|
--------------------3--0--|-----------0--1--0--------0--|
--------0-----------------|--------0-----------0--2-----|
-----0-----0-----0--------|-----0-----------------------|
--------------------------|--3--------------3-----------|
--3-----------3-----------|-----------------------------|

                             |--3--|  |--3--|  |--3--|
  E  E  E  E  E  E  E  E     E  E  E  E  E  E  E  E  E  E  E
--------------------------|-----------------------------------|
--------------------------|--------------------------------0--|
--------0-----------0-----|--------0--------0--------0--2-----|
-----0-----0-----0-----0--|-----0--------0--------0-----------|
--------------------------|--------------------2--------------|
--3-----------3-----------|--3--------3-----------------2-----|

                             |--3--|
  E  E  E  E  E  E  E  E     E  E  E  E  E  E  E  E  E
--------------------------|-----------------------------|
--------------------3--0--|-----------0--1--0--------0--|
--------0-----------------|--------0-----------0--2-----|
-----0-----0-----0--------|-----0-----------------------|
--------------------------|--3--------------3-----------|
--3-----------3-----------|-----------------------------|

                             |--3--|  |--3--|
  E  E  E  E  E  E  E  E     E  E  E  E  E  E  E  E  E  E
--------------------------|-----------------------3--2--0--|
--------------------------|-----------3--------------------|
--------4-----------4-----|--------4-----4-----------------|
-----4-----4-----4-----4--|-----4-----------4--------------|
--2-----------2-----------|--2-----------------2-----------|
--------------------------|--------------------------------|

  |--3--|
  E  E  E  E  E  E  E  E  E     E  E  E  E  E  E  E  E
-----------0--2--0-----------|--------------------------|
--------------------3-----0--|--------------0-----------|
--------0--------------------|--------0-----------0-----|
-----2-----------------------|-----0-----0-----0-----0--|
--3--------------------------|--------------------------|
-----------------0-----2-----|--3-----------------------|

  |--3--|  |--3--|
  E  E  E  E  E  E  E  E  E  E     E  E  E  E  E  E  E  E
--------------------------------|-----------------3--2--0--|
--------0--------------------0--|--------------------------|
--0-----------------0--2--------|--------0-----------------|
-----0-----------2--------------|-----0-----0--------------|
--3-----------3-----------------|--------------2-----------|
-----------3--------0-----2-----|--3-----------------------|

  |--3--|
  E  E  E  E  E  E  E  E  E     E  E  E  E  E  E  E  E
-----------0--2--0-----------|-----------0--------------|
--------------------3-----0--|--------0-----0-----------|
--------0--------------------|-----------------2--0--2--|
-----2-----------------------|-----4--------------------|
--3--------------------------|--2-----------------------|
-----------------0-----2-----|--------------2-----------|

                             |--3--|  |--3--|
  E  E  E  E  E  E  E  E     E  E  E  E  E  E  Q    Q
--------------------------|------------------------------|
--------------1-----------|-----3--------------0---------|
--------2-----------2-----|--0--------0-------------2----|
-----2-----2-----2-----2--|--------2--------0------------|
--0-----------------------|--------------3---------------|
--------------------------|------------------------------|

                             |--3--|  |--3--|  |--3--|  |--3--|
  E  E  E  E  E  E  E  E     E  E  E  E  E  E  E  E  E  E  E  E
--------------------------|--------------------------------------|
--------------------------|-----------------------------0-----3--|
--0-----------------------|--------0--------0--------0-----------|
--------0-----------0-----|-----0--------0--------0--------0-----|
-----2-----2-----2-----2--|--------------------0--------2--------|
--3-----------3-----------|--3--------3--------------------------|

  |--3--|  |--3--|  |--3--|  |--3--|     |--3--|  |--3--|  |--3--|  |--3--|
  E  E  E  E  E  E  E  E  E  E  E  E     E  E  E  E  E  E  E  E  E  E  E  E
--0--------0--------------------------|--------------------------------------|
--------------------1-----------------|--0-----3--------------------0-----3--|
--------0--------0--------0--2--------|-----------------0--------0-----------|
-----2--------2--------0--------0-----|-----0--------0--------0--------0-----|
--3--------3--------3--------3-----3--|--------------------0--------2--------|
--------------------------------------|--3--------3--------------------------|

  |--3--|  |--3--|  |--3--|  |--3--|     |--3--|  |--3--|  |--3--|  |--3--|
  E  E  E  E  E  E  E  E  E  E  E  E     E  E  E  E  E  E  E  E  E  E  E  E
--0--------0--------------------------|--------------------------------------|
--------------------1-----------------|--0-----3--------------------0-----3--|
--------0--------0--------0--------2--|-----------------0--------0-----------|
-----2--------2--------0--------0-----|-----0--------0--------0--------0-----|
--3--------3--------3--------3--------|--------------------0--------2--------|
--------------------------------------|--3--------3--------------------------|

  |--3--|  |--3--|  |--3--|  |--3--|
  E  E  E  E  E  E  E  E  E  E  E  E     E  E  E  H        E
--0--------0--------2-----------------|-----0--2--3--------L--|
--------------------------1--------4--|--4--------5--------L--|
--------0--------0-----2--------------|--2--------4--------L--|
-----2--------2-----0-----------1-----|-----------------------|
--3--------3-----------------2--------|--2--------------------|
--------------------------------------|-----------0--------L--|

  H        E  E  E  E     E  E  E  E  E  E  E  E     E  E  E  E  E  E  E  E
--L--------------------|--------------------0-----|--8-----7-----2--5-----3---||
--L-----------0--------|-----------------1-----1--|-----5---------------------||
--L--------------2--0--|--------0-----0-----------|-----------5--------2-----*||
-----------------------|-----2-----2--------------|--------------0-----------*||
-----------------------|--3-----------------------|--0------------------------||
--L--------------------|--------------------------|---------------------------||

   E  E  E  E  E  E  E  E     E  E  E  E  E  E  E  E   3x
---------------------------|---------------------------||
---------------------------|---------------------------||
*--------0-----------0-----|--------0-----------0-----*||
*-----0-----0-----0-----0--|-----2-----2-----0-----0--*||
---------------2-----------|--0-----------2------------||
---3-----------------------|---------------------------||

                            Rall.--------------------
  E  E  E  E  E  E  E  E     E  E  E  E  E  E  E  E     W
--------------------------|--------------------------|-------------------||
--------------------------|--------------------------|--0----------------||
--------0-----------0-----|--------0-----------0--2--|--0----------------||
-----0-----0-----0-----0--|-----2-----2-----0--------|--0----------------||
--------------2-----------|--0-----------2-----------|--2----------------||
--3-----------------------|--------------------------|--3----------------||

Duration Legend
---------------
W - whole
H - half
Q - quarter
E - 8th
S - 16th
T - 32nd
X - 64th
. - note dotted
|-n-|  - n-tuplets

Tablature Legend
----------------
Rall. - Gradually get slower
L - Tie
^ - brush up
Login or Register to remove this ad.

22 comments on Descendant of Shinobi

I love this tab

I love this tab

Only thing I would change is

Only thing I would change is in this measure:

|--8-----7--------5---------||
|-----5--------7--------8---||
|-----------5--------------*||
|--------------0-----7-----*||
|--0------------------------||
|---------------------------||

Change the last note to e3 instead of B8. That way those of us with normal sized hands can let that G ring out while we play the ending.

Doh, that's what it is on

Doh, that's what it is on the PDF, I just missed it when I made it a tab, can you change it for me?

rgr, just updated everything

rgr, just updated everything

this is great stuff, a good

this is great stuff, a good bridge for me into the intermediate level of playing, thanks for a great tab

Very good!

5

Very good!

man this song brings back

5

man this song brings back memories

Just wanna say, measures

Just wanna say, measures 12-21 of this arrangement is probably the most peaceful stretch of music I know. I love this arrangement.

yay what a great tab, i

5

yay what a great tab, i searched long for the next song i realy want to lear full. This is gona be it 8-)
Thx kabukibear for the great tab!

I don't know how you do it.

5

I don't know how you do it. your tabs are so easy to play, but they sound great. I can play this smoothly more that halfway through, and I just found it 5 minutes ago. awesome.

great tab

12.75

at least i found this tab for this song and this tab is realy gooddd

You're the man

5

I subscribed to you on YouTube, finally found you =D

This TAB is awesome and so is the song.
I'll be playing this as my sort of classical-style (I think it's difficulty is hard enough) piece for my music solo performance and Canon Rock (contrast).

Thanks =D

This tab is good even tho im

5

This tab is good even tho im a beginner it seems quite easy :D

this is

5

what i call mega donk ownage

wow wow wow wow wow

5

i never realised this was a top rated tab this is mega this is supreme this is awesome

Love it, been playing it like

Love it, been playing it like a fiend.

However, the first two triplets in this measure sound mucked up, so I improvise with something that sounds better.

|--3--| |--3--|
E E E E E E E E E E E E E E E E E E
--------------------------------|-----------------3--2--0--|
--------0--------------------0--|--------------------------|
--0-----------------0--2--------|--------0-----------------|
-----0-----------2--------------|-----0-----0--------------|
--3-----------3-----------------|--------------2-----------|
-----------3--------0-----2-----|--3-----------------------|

This is so cool it makes me

5

This is so cool it makes me want to play FF VII :D

Pretty darn cool! Thanks!

Pretty darn cool! Thanks!

Damnit!

5

I can't stop playing this!

sweet!

5

its so catchy! can't.. stop.. playing !

Curse You

5

You amazing Guitarist You, im so close to completely learn this tab but im just having trouble nailing bars 22-28... Almost there tho, and i will post a video as soon as I can look for it in a week or two

The most funnest tab ever

I love this tab!! it's just so bouncy and fun to play \o/