Ads

Descendant of Shinobi (Final Fantasy VII) Guitar Tab

Submitted: Oct 01, 2007 by archard

4.5
Average: 4.5 (10 votes)
Download | Listen
Game: Final Fantasy VII
Composer(s): Nobuo Uematsu
Style: Transcription
Series: Final Fantasy

This song is also called Yuffie's Theme

AutoScroll: Slow | Medium | Fast
Yuffie's Theme (Descendant of the Shinobi)
Final Fantasy 7
Composed by Nobuo Uematsu

8/6/06

e--3-5-7---10-7---7-8-7-3-5-7----------3-5-7---10-7---7-8-7-3-5-7--------
B------------------------------------------------------------------------
G------------------------------------------------------------------------
D------------------------------------------------------------------------
A------------------------------------------------------------------------
E------------------------------------------------------------------------

e--15-14-12---12-14-12-10-7
B--------------------------
G--------------------------
D--------------------------
A--------------------------
E--------------------------

e--3---0-3-5--7-----15-14-12---12-14-12-10-7---7-12-7-5-3-5----------7--2--3
B---------------------------------------------------------------------------
G---------------------------------------------------------------------------
D---------------------------------------------------------------------------
A---------------------------------------------------------------------------
E---------------------------------------------------------------------------

e----7-10-12-12-8---5-7-10-------7-10-12-12-8---5-7-10---
B--8---------------------------8-------------------------
G--------------------------------------------------------
D--------------------------------------------------------
A--------------------------------------------------------
E--------------------------------------------------------

e----7-10-12-12-14---12-11-12-14-15
B--8-------------------------------
G----------------------------------
D----------------------------------
A----------------------------------
E----------------------------------

e--7--5--3----------8--7---2--5--3
B---------------------------------
G---------------------------------
D---------------------------------
A---------------------------------
E---------------------------------
Login or Register to remove this ad.

5 comments on Descendant of Shinobi

This is a great version of

This is a great version of this! Thanks~!

perfect tab thank you

perfect tab thank you

Nice

Nice

Simplistic 2-string, but it

4

Simplistic 2-string, but it gets the job done well enough.

Thenks for the tab

5

I have loved this song since the game came out. I have the soundtrack and now I can play it on the guitar too!