Ads

Crazy Motorcycle (Final Fantasy VII) Guitar Tab

Submitted: Apr 12, 2008 by archard (Last updated: Oct 16, 2009)

5
Average: 5 (1 vote)
Download | Listen
Game: Final Fantasy VII
Composer(s): Nobuo Uematsu
Style: 2 or more instruments, Transcription
Series: Final Fantasy

AutoScroll: Slow | Medium | Fast
Crazy Motorcycle
Final Fantasy 7
Composed by Nobuo Uematsu
 (archard)
4/12/08

Guitar 1



     E   E   E  E   E   E   E  E     E   E   E  E   E   E   E  E   
E||-----10---L--8--10---L---------|-----10---L--8--10---L---------|
B||------------------------10-----|------------------------10-----|
G||--7-------------------------9--|--7-------------------------9--|
D||-------------------------------|-------------------------------|
A||-------------------------------|-------------------------------|
E||-------------------------------|-------------------------------|


  E   E   E  E   E   E   E  E     E   E   E  E   E   E   E  E   
-----10---L--8--10---L---------|-----10---L--8--10---L---------|
------------------------10-----|------------------------10-----|
--7-------------------------9--|--7-------------------------9--|
-------------------------------|-------------------------------|
-------------------------------|-------------------------------|
-------------------------------|-------------------------------|


  E   E   E  E   E   E   E  E     E   E   E  E   E   E   E  E   
-----10---L--8--10---L---------|-----10---L--8--10---L---------|
------------------------10-----|------------------------10-----|
--7-------------------------9--|--7-------------------------9--|
-------------------------------|-------------------------------|
-------------------------------|-------------------------------|
-------------------------------|-------------------------------|


  E   E   E  E   E   E   E  E     E   E   E  E   E   E   E  E   
-----10---L--8--10---L---------|-----10---L--8--10---L---------|
------------------------10-----|------------------------10-----|
--7-------------------------9--|--7-------------------------9--|
-------------------------------|-------------------------------|
-------------------------------|-------------------------------|
-------------------------------|-------------------------------|


  E   E   E  E   E   E   E  E     E   E   E  E   E   E   E  E   
-----10---L--8--10---L---------|-----10---L--8--10---L---------|
------------------------10-----|------------------------10-----|
--7-------------------------9--|--7-------------------------9--|
-------------------------------|-------------------------------|
-------------------------------|-------------------------------|
-------------------------------|-------------------------------|


  E   E   E  E   E   E   E  E     E   E   E  E   E   E   E  E   
-----10---L--8--10---L---------|-----10---L--8--10---L---------|
------------------------10-----|------------------------10-----|
--7-------------------------9--|--7-------------------------9--|
-------------------------------|-------------------------------|
-------------------------------|-------------------------------|
-------------------------------|-------------------------------|


   Q.      Q.     Q                                Q.      Q.      Q     
-----------------------|-------|-------|-------|------------------------|
--11------11-----------|-------|-------|-------|--11------11------11----|
--10------10-----------|-------|-------|-------|--10------10------10----|
---8-------8-----------|-------|-------|-------|---8-------8-------8----|
-----------------------|-------|-------|-------|------------------------|
-----------------------|-------|-------|-------|------------------------|


                            E   E   E  E   E   E   E  E   
-------|-------|-------||------10---L--8--10---L---------|
-------|-------|-------||-------------------------10-----|
-------|-------|-------||*--7-------------------------9--|
-------|-------|-------||*-------------------------------|
-------|-------|-------||--------------------------------|
-------|-------|-------||--------------------------------|


  E   E   E  E   E   E   E  E     E   E   E  E   E   E   E  E   
-----10---L--8--10---L---------|-----10---L--8--10---L---------|
------------------------10-----|------------------------10-----|
--7-------------------------9--|--7-------------------------9--|
-------------------------------|-------------------------------|
-------------------------------|-------------------------------|
-------------------------------|-------------------------------|


  E   E   E  E   E   E   E  E     E   E   E  E   E   E   E  E   
-----10---L--8--10---L---------|-----10---L--8--10---L---------|
------------------------10-----|------------------------10-----|
--7-------------------------9--|--7-------------------------9--|
-------------------------------|-------------------------------|
-------------------------------|-------------------------------|
-------------------------------|-------------------------------|


  E   E   E  E   E   E   E  E     E   E   E  E   E   E   E  E   
-----10---L--8--10---L---------|-----10---L--8--10---L---------|
------------------------10-----|------------------------10-----|
--7-------------------------9--|--7-------------------------9--|
-------------------------------|-------------------------------|
-------------------------------|-------------------------------|
-------------------------------|-------------------------------|


  E   E   E  E   E   E   E  E      W                     W                  
-----10---L--8--10---L---------|--11~----------------|--14~----------------|
------------------------10-----|---------------------|---------------------|
--7-------------------------9--|---------------------|---------------------|
-------------------------------|---------------------|---------------------|
-------------------------------|---------------------|---------------------|
-------------------------------|---------------------|---------------------|


                         W                                       
   W                     W                    W                  
--13~----------------|--12----------------|--11~----------------|
---------------------|--------------------|---------------------|
---------------------|--------------------|---------------------|
---------------------|--------------------|---------------------|
---------------------|--------------------|---------------------|
---------------------|--------------------|---------------------|


   W                     W                                      
---L~----------------|---L~----------------|-------------------|
---------------------|---------------------|-------------------|
---------------------|---------------------|-------------------|
---------------------|---------------------|-------------------|
---------------------|---------------------|-------------------|
---------------------|---------------------|-------------------|


   W                     W                     W                  
--11~----------------|--14~----------------|--13~----------------|
---------------------|---------------------|---------------------|
---------------------|---------------------|---------------------|
---------------------|---------------------|---------------------|
---------------------|---------------------|---------------------|
---------------------|---------------------|---------------------|


   W                                                             
   W                    W                     W                  
--16----------------|--14~----------------|--18~----------------|
--------------------|---------------------|---------------------|
--------------------|---------------------|---------------------|
--------------------|---------------------|---------------------|
--------------------|---------------------|---------------------|
--------------------|---------------------|---------------------|


   W                     W                      W                  
--16~----------------|--19br----------------|--18~----------------|
---------------------|----------------------|---------------------|
---------------------|----------------------|---------------------|
---------------------|----------------------|---------------------|
---------------------|----------------------|---------------------|
---------------------|----------------------|---------------------|


   W                    W                    W                 
---L----------------|---L----------------|---L----------------|
--------------------|--------------------|--------------------|
--------------------|--------------------|--------------------|
--------------------|--------------------|--------------------|
--------------------|--------------------|--------------------|
--------------------|--------------------|--------------------|


  Q.     Q.     Q                               Q    E  Q    E  E  E   
---------------------|-------|-------|-------|------------------------|
---------------------|-------|-------|-------|------------------------|
--3------3------3----|-------|-------|-------|--7----5--7----7--7--5--|
--3------3------3----|-------|-------|-------|------------------------|
--1------1------1----|-------|-------|-------|------------------------|
---------------------|-------|-------|-------|------------------------|


  Q    E  Q    E  E  E     Q    E  Q    E  E  E     Q    E  Q.     Q     
------------------------|------------------------|----------------------|
------------------------|------------------------|----------6-----------|
--7----5--7----8--7--5--|--7----5--7----7--7--5--|--7----5---------8----|
------------------------|------------------------|----------------------|
------------------------|------------------------|----------------------|
------------------------|------------------------|----------------------|


  Q    E  Q    E  E  E     Q    E  Q    E  E  E     Q    E  Q    E  E  E   
------------------------|------------------------|------------------------|
------------------------|------------------------|------------------------|
--7----5--7----7--7--5--|--7----5--7----8--7--5--|--7----5--7----7--7--5--|
------------------------|------------------------|------------------------|
------------------------|------------------------|------------------------|
------------------------|------------------------|------------------------|


  Q    E  Q.     Q       Q    E  Q    E  E  E     Q    E  Q    E  E  E   
----------------------|------------------------|------------------------|
----------6-----------|--8----6--8----8--8--6--|--8----6--8----9--8--6--|
--7----5---------8----|------------------------|------------------------|
----------------------|------------------------|------------------------|
----------------------|------------------------|------------------------|
----------------------|------------------------|------------------------|


  Q    E  Q    E  E  E     Q    E  Q.     Q       Q    E  Q    E  E  E   
------------------------|----------6-----------|------------------------|
--8----6--8----8--8--6--|--8----6---------9----|--8----6--8----8--8--6--|
------------------------|----------------------|------------------------|
------------------------|----------------------|------------------------|
------------------------|----------------------|------------------------|
------------------------|----------------------|------------------------|


  Q    E  Q    E  E  E     Q    E  Q    E  E  E     Q    E  Q.     Q     
------------------------|------------------------|----------6-----------|
--8----6--8----9--8--6--|--8----6--8----8--8--6--|--8----6---------9----|
------------------------|------------------------|----------------------|
------------------------|------------------------|----------------------|
------------------------|------------------------|----------------------|
------------------------|------------------------|----------------------|


   Q.      Q.     Q                               E   E  E  E   E  E  E   E   
--10------10-----------|-------|-------|-------|-----10--8---------8-----13--|
--10------10-----------|-------|-------|-------|---------------10------------|
---7-------7-----------|-------|-------|-------|--7--------------------------|
-----------------------|-------|-------|-------|-----------------------------|
-----------------------|-------|-------|-------|-----------------------------|
-----------------------|-------|-------|-------|-----------------------------|


  E   E   E  E   E  E  E   E     E   E  E  E   E  E  E   E   
-----12--10---------8-----10--|-----10--8---------8-----13--|
----------------10------------|---------------10------------|
------------------------------|--7--------------------------|
------------------------------|-----------------------------|
------------------------------|-----------------------------|
------------------------------|-----------------------------|


  E   E   E  E   E  E  E   E     E   E  E  E   E  E  E  E   
-----12--10---------8-----10--|-------------------------9--|
----------------10------------|-----11--9---------9--------|
------------------------------|---------------10-----------|
------------------------------|--8-------------------------|
------------------------------|----------------------------|
------------------------------|----------------------------|


  E  E   E  E   E  E  E   E     E   E  E  E   E  E  E  E   
-----8-----------------------|-------------------------9--|
--------11---------9-----11--|-----11--9---------9--------|
---------------10------------|---------------10-----------|
-----------------------------|--8-------------------------|
-----------------------------|----------------------------|
-----------------------------|----------------------------|


  E  E   E  E   E  E  E   E     E   E  E  E   E  E  E  E   
-----8-----------------------|-------------------------9--|
--------11---------9-----11--|-----11--9---------9--------|
---------------10------------|---------------10-----------|
-----------------------------|--8-------------------------|
-----------------------------|----------------------------|
-----------------------------|----------------------------|


  E  E   E  E   E  E  E   E     E   E  E  E   E  E  E  E   
-----8-----------------------|-------------------------9--|
--------11---------9-----11--|-----11--9---------9--------|
---------------10------------|---------------10-----------|
-----------------------------|--8-------------------------|
-----------------------------|----------------------------|
-----------------------------|----------------------------|


  E  E   E  E   E  E  E   E        W                  
-----8------------------------||--------------------||
--------11---------9-----11---||--11----------------||
---------------10------------*||--------------------||
-----------------------------*||--------------------||
------------------------------||--------------------||
------------------------------||--------------------||



W - whole
Q - quarter
E - 8th
. - note dotted
L - tied note
br - bendRelease
~ - vibrato
W - wide vibrato


----------------------------------------------


Crazy Motorcycle
Final Fantasy 7
Composed by Nobuo Uematsu
 (archard)
4/12/08

Guitar 2



E||-------|-------|-------|-------|-------|-------|-------|-------|
B||-------|-------|-------|-------|-------|-------|-------|-------|
G||-------|-------|-------|-------|-------|-------|-------|-------|
D||-------|-------|-------|-------|-------|-------|-------|-------|
A||-------|-------|-------|-------|-------|-------|-------|-------|
E||-------|-------|-------|-------|-------|-------|-------|-------|


  E  E  E  E  E  E  E  E     E  E  E  E  E  E  E  E   
--------------------------|--------------------------|
--------------------------|--------------------------|
-----2-----2-----2-----2--|-----2-----2-----2-----0--|
--0-----0-----0-----0-----|--0-----0-----0-----------|
--------------------------|--------------------3-----|
--------------------------|--------------------------|


  E  E  E  E  E  E  E  E     E  E  E  E  E  E  E  E   
--------------------------|--------------------------|
--------------------------|-----------------------1--|
-----2-----2-----2-----2--|-----2-----2-----2--3-----|
--0-----0-----0-----0-----|--0-----0-----0-----------|
--------------------------|--------------------------|
--------------------------|--------------------------|


  E  E  E  E  E  E  E  E     E  E  E  E  E  E  E  E   
--------------------------|--------------------------|
--------------------------|--------------------------|
--------------------------|--------------------------|
-----3-----3-----3-----3--|-----3-----3-----3-----1--|
--1-----1-----1-----1-----|--1-----1-----1-----------|
--------------------------|--------------------4-----|


  E  E  E  E  E  E  E  E     E  E  E  E  E  E  E  E   
--------------------------|--------------------------|
--------------------------|--------------------------|
--------------------------|-----------------------1--|
-----3-----3-----3-----3--|-----3-----3-----3--4-----|
--1-----1-----1-----1-----|--1-----1-----1-----------|
--------------------------|--------------------------|


  E  E  E  E  E  E  E  E     E  E  E  E  E  E  E  E   
--------------------------|--------------------------|
--------------------------|--------------------------|
--------------------------|--------------------------|
-----3-----3-----3-----3--|-----3-----3-----3-----1--|
--1-----1-----1-----1-----|--1-----1-----1-----------|
--------------------------|--------------------4-----|


  E  E  E  E  E  E  E  E     E  E  E  E  E  E  E  E   
--------------------------|--------------------------|
--------------------------|--------------------------|
--------------------------|-----------------------1--|
-----3-----3-----3-----3--|-----3-----3-----3--4-----|
--1-----1-----1-----1-----|--1-----1-----1-----------|
--------------------------|--------------------------|


    E  E  E  E  E  E  E  E     E  E  E  E  E  E  E  E   
|---------------------------|--------------------------|
|---------------------------|--------------------------|
|*-----2-----2-----2-----2--|-----2-----2-----2-----0--|
|*--0-----0-----0-----0-----|--0-----0-----0-----------|
|---------------------------|--------------------3-----|
|---------------------------|--------------------------|


  E  E  E  E  E  E  E  E     E  E  E  E  E  E  E  E   
--------------------------|--------------------------|
--------------------------|-----------------------1--|
-----2-----2-----2-----2--|-----2-----2-----2--3-----|
--0-----0-----0-----0-----|--0-----0-----0-----------|
--------------------------|--------------------------|
--------------------------|--------------------------|


  E  E  E  E  E  E  E  E     E  E  E  E  E  E  E  E   
--------------------------|--------------------------|
--------------------------|--------------------------|
-----2-----2-----2-----2--|-----2-----2-----2-----0--|
--0-----0-----0-----0-----|--0-----0-----0-----------|
--------------------------|--------------------3-----|
--------------------------|--------------------------|


  E  E  E  E  E  E  E  E     E  E  E  E  E  E  E  E   
--------------------------|--------------------------|
--------------------------|-----------------------1--|
-----2-----2-----2-----2--|-----2-----2-----2--3-----|
--0-----0-----0-----0-----|--0-----0-----0-----------|
--------------------------|--------------------------|
--------------------------|--------------------------|


  E  E  E  E  E  E  E  E     E  E  E  E  E  E  E  E   
--------------------------|--------------------------|
--------------------------|--------------------------|
-----3-----3-----3-----3--|-----3-----3-----3-----1--|
--1-----1-----1-----1-----|--1-----1-----1-----------|
--------------------------|--------------------4-----|
--------------------------|--------------------------|


  E  E  E  E  E  E  E  E     E  E  E  E  E  E  E  E   
--------------------------|--------------------------|
--------------------------|-----------------------2--|
-----3-----3-----3-----3--|-----3-----3-----3--4-----|
--1-----1-----1-----1-----|--1-----1-----1-----------|
--------------------------|--------------------------|
--------------------------|--------------------------|


  E   Q     E  E   E   E  E     E   Q     E  E   E   E  E   
-----11----11--9--11------9--|-----11----11--9--11------9--|
----------------------11-----|----------------------11-----|
--8--------------------------|--8--------------------------|
-----------------------------|-----------------------------|
-----------------------------|-----------------------------|
-----------------------------|-----------------------------|


  E   Q     E  E   E   E  E     E   Q     E  E   E   E  E   
-----11----11--9--11------9--|-----11----11--9--11------9--|
----------------------11-----|----------------------11-----|
--8--------------------------|--8--------------------------|
-----------------------------|-----------------------------|
-----------------------------|-----------------------------|
-----------------------------|-----------------------------|


  E  E  E  E  E  E  E  E     E  E  E  E  E  E  E  E   
--------------------------|--------------------------|
--------------------------|--------------------------|
-----3-----3-----3-----3--|-----3-----3-----3-----1--|
--1-----1-----1-----1-----|--1-----1-----1-----------|
--------------------------|--------------------4-----|
--------------------------|--------------------------|


  E  E  E  E  E  E  E  E     E  E  E  E  E  E  E  E   
--------------------------|--------------------------|
--------------------------|-----------------------2--|
-----3-----3-----3-----3--|-----3-----3-----3--4-----|
--1-----1-----1-----1-----|--1-----1-----1-----------|
--------------------------|--------------------------|
--------------------------|--------------------------|


  E   Q     E  E   E   E  E     E   Q     E  E   E   E  E   
-----11----11--9--11------9--|-----11----11--9--11------9--|
----------------------11-----|----------------------11-----|
--8--------------------------|--8--------------------------|
-----------------------------|-----------------------------|
-----------------------------|-----------------------------|
-----------------------------|-----------------------------|


  E   Q     E  E   E   E  E     E   Q     E  E   E   E  E   
-----11----11--9--11------9--|-----11----11--9--11------9--|
----------------------11-----|----------------------11-----|
--8--------------------------|--8--------------------------|
-----------------------------|-----------------------------|
-----------------------------|-----------------------------|
-----------------------------|-----------------------------|


   Q.      Q.     Q                                Q.      Q.      Q     
-----------------------|-------|-------|-------|------------------------|
--11------11-----------|-------|-------|-------|--11------11------11----|
--10------10-----------|-------|-------|-------|--10------10------10----|
---8-------8-----------|-------|-------|-------|---8-------8-------8----|
-----------------------|-------|-------|-------|------------------------|
-----------------------|-------|-------|-------|------------------------|


           E   E  E   E   E   E  E   E      E   E  E   E   E   E  E   E   
-------|------18-----18------18-----18--|------18-----18------18-----18--|
-------|--------------------------------|--------------------------------|
-------|--15-------------15-------------|--15-------------15-------------|
-------|--------------------------------|--------------------------------|
-------|--------------------------------|--------------------------------|
-------|--------------------------------|--------------------------------|


   E   E   E   E   E   E  E  E      E   E   E   E   E   E  E  E   
------17--13--------------------|------17--13--------------------|
--------------15----------------|--------------15----------------|
------------------14--10--7-----|------------------14--10--7-----|
--12-------------------------7--|--12-------------------------7--|
--------------------------------|--------------------------------|
--------------------------------|--------------------------------|


   E   E   E   E   E   E  E  E      E   E   E   E   E   E  E  E   
------17--13--------------------|------17--13--------------------|
--------------15----------------|--------------15----------------|
------------------14--10--7-----|------------------14--10--7-----|
--12-------------------------7--|--12-------------------------7--|
--------------------------------|--------------------------------|
--------------------------------|--------------------------------|


   E   E   E   E   E   E  E  E      E   E   E   E   E   E  E  E   
------17--13--------------------|------17--13--------------------|
--------------15----------------|--------------15----------------|
------------------14--10--7-----|------------------14--10--7-----|
--12-------------------------7--|--12-------------------------7--|
--------------------------------|--------------------------------|
--------------------------------|--------------------------------|


   E   E   E   E   E   E  E  E      E   E   E   E   E   E  E  E   
------17--13--------------------|------17--13--------------------|
--------------15----------------|--------------15----------------|
------------------14--10--7-----|------------------14--10--7-----|
--12-------------------------7--|--12-------------------------7--|
--------------------------------|--------------------------------|
--------------------------------|--------------------------------|


   E   E   E   E   E   E   E   E      E   E   E   E   E   E   E   E   
------10--------------------------|------10--------------------------|
----------11----------------------|----------11----------------------|
--------------12------------------|--------------12------------------|
------------------12--------------|------------------12--------------|
--10------------------13--10------|--10------------------13--10------|
------------------------------10--|------------------------------10--|


   E   E   E   E   E   E   E   E      E   E   E   E   E   E   E   E   
------10--------------------------|------10--------------------------|
----------11----------------------|----------11----------------------|
--------------12------------------|--------------12------------------|
------------------12--------------|------------------12--------------|
--10------------------13--10------|--10------------------13--10------|
------------------------------10--|------------------------------10--|


   E   E   E   E   E   E   E   E      E   E   E   E   E   E   E   E   
------10--------------------------|------10--------------------------|
----------11----------------------|----------11----------------------|
--------------12------------------|--------------12------------------|
------------------12--------------|------------------12--------------|
--10------------------13--10------|--10------------------13--10------|
------------------------------10--|------------------------------10--|


   E   E   E   E   E   E   E   E      E   E   E   E   E   E   E   E   
------10--------------------------|------10--------------------------|
----------11----------------------|----------11----------------------|
--------------12------------------|--------------12------------------|
------------------12--------------|------------------12--------------|
--10------------------13--10------|--10------------------13--10------|
------------------------------10--|------------------------------10--|


  E  E  E  E  E  E  E  E     E  E  E  E  E  E  E  E   
--------------------------|--------------------------|
--------------------------|--------------------------|
-----2-----2-----2-----2--|-----2-----2-----2-----0--|
--0-----0-----0-----0-----|--0-----0-----0-----------|
--------------------------|--------------------3-----|
--------------------------|--------------------------|


  E  E  E  E  E  E  E  E     E  E  E  E  E  E  E  E   
--------------------------|--------------------------|
--------------------------|-----------------------1--|
-----2-----2-----2-----2--|-----2-----2-----2--3-----|
--0-----0-----0-----0-----|--0-----0-----0-----------|
--------------------------|--------------------------|
--------------------------|--------------------------|


  E  E  E  E  E  E  E  E     E  E  E  E  E  E  E  E   
--------------------------|--------------------------|
--------------------------|--------------------------|
-----2-----2-----2-----2--|-----2-----2-----2-----0--|
--0-----0-----0-----0-----|--0-----0-----0-----------|
--------------------------|--------------------3-----|
--------------------------|--------------------------|


  E  E  E  E  E  E  E  E     E  E  E  E  E  E  E  E   
--------------------------|--------------------------|
--------------------------|-----------------------1--|
-----2-----2-----2-----2--|-----2-----2-----2--3-----|
--0-----0-----0-----0-----|--0-----0-----0-----------|
--------------------------|--------------------------|
--------------------------|--------------------------|


  E  E  E  E  E  E  E  E     E  E  E  E  E  E  E  E   
--------------------------|--------------------------|
--------------------------|--------------------------|
--------------------------|--------------------------|
-----3-----3-----3-----3--|-----3-----3-----3-----1--|
--1-----1-----1-----1-----|--1-----1-----1-----------|
--------------------------|--------------------4-----|


  E  E  E  E  E  E  E  E     E  E  E  E  E  E  E  E   
--------------------------|--------------------------|
--------------------------|--------------------------|
--------------------------|-----------------------1--|
-----3-----3-----3-----3--|-----3-----3-----3--4-----|
--1-----1-----1-----1-----|--1-----1-----1-----------|
--------------------------|--------------------------|


  E  E  E  E  E  E  E  E     E  E  E  E  E  E  E  E   
--------------------------|--------------------------|
--------------------------|--------------------------|
--------------------------|--------------------------|
-----3-----3-----3-----3--|-----3-----3-----3-----1--|
--1-----1-----1-----1-----|--1-----1-----1-----------|
--------------------------|--------------------4-----|


  E  E  E  E  E  E  E  E     E  E  E  E  E  E  E  E       W                  
--------------------------|---------------------------||--1----------------||
--------------------------|---------------------------||--3----------------||
--------------------------|-----------------------1--*||--3----------------||
-----3-----3-----3-----3--|-----3-----3-----3--4-----*||--3----------------||
--1-----1-----1-----1-----|--1-----1-----1------------||--1----------------||
--------------------------|---------------------------||-------------------||



W - whole
Q - quarter
E - 8th
. - note dotted
L - tied note
br - bendRelease
~ - vibrato
W - wide vibrato
Login or Register to remove this ad.

2 comments on Crazy Motorcycle

what the f**k is ---L--- i

what the f**k is ---L---
i dont know

It says about 5 lines above

It says about 5 lines above your comment...