Lost Pieces (Chrono Cross) Guitar Tab

Submitted: Jul 23, 2008 by delgelato (Last updated: Oct 18, 2009)

5
Average: 5 (5 votes)
Download | Listen
Game: Chrono Cross
Composer(s): Yasunori Mitsuda
Style: Arrangement, Fingerstyle
Series: Chrono

AutoScroll: Slow | Medium | Fast
|---------7-5-0--------------------0-1---1-3-0-------------------|
|---------------1-------------3--3---1------------1----0-------4-|
|-----4-5-----2----2--------2--------2-----------------------4---|
|---2-------0---0-----0--4-----------3---3--------2------2-4---1-|
|-0----------------------------------3-3-----3---------2---------|
|---------3--------2-----------------1---------3-----------------|


|-0---7---7---5-3--2-3-5-------3-2--2--3p2--0----------------0-------|
|---------------3----------3-----3--------3-------3--------3-------3-|
|---------7---0----------0-----0--------0-------0--------0-------0---|
|-----4-5---4----------4-----4--------4-------4--------4-------4-----|
|---2----------------2--------------3----------------3---------------|
|-0----------------0-------------------------------------------------|



|-0---7---7---7-9--10-12--10-9-7------5--3-5-7-5---0---0------------5---7---|
|------------------------------7p5--3--------------0---0------------0---0---|
|---------7---0-7------------0--------0----------2---2---2--------2---2---2-|
|-----4-5---4----------------------------------3----------------3-----------|
|---2---------------------9------------------3----------------3-------------|
|-0----------------0--7------------------0-1----------------1---------------|


                                                                             
|-3-2-3----------------------3---5-----7-----3---5-|
|---------3-----3------------5-3-----------0----3--|
|-------0-----0----------0-------0-----------0-2---|
|-----4-----4----------4-----------------0---------|
|---2----------------2-----------------------------|
|-0----------------0-----------------2-3-----------|


                            7h8p7
|=------3-----2-0-------7-----I---5-3--2-0-----|
|=----3-5-----0-1-----3-0--------3---3---1-3-1-|
|=--2-------0-------0-------0---2------2---0-0-|
|=0-------4-------2-------0---0----0-------4-2-|
|=----------2---3------------------------3-----|
|=------0---------------3----------------------|



|-------0---------|
|---3-------------|
|-----------2---1~|
|---0-------2-----|
|-3---0---2---2---|
|-------0---------|






|-7--------5---------3-2-3-2h3p2---0-----7--------5----------------10----------|
|-8--------3---------------------3---0---8------8-3-----8h10p8-7-8---------7---|
|-9------9-2---------0-----------2-------9--------2---4--------------------7---|
|-----7----4-4---0---------0-----------------7----4-4--------------7-----7---7-|
|-0-7------2---2---3---------------------0-7------2------------7-----7-5-------|
|------------------------------------------------------------------------------|


|-7--------5---------3-2h3p2-3-2---0---------|
|-8------------7-----0-----------3---0-------|
|-9------9-----7-----------------2-----------|
|-----10---7-7---7-2-----------0-------------|
|---10-----5---------------------------------|
|-8------------------------------------------|



|-7--------5--3--2---0-----0-------|
|-8------------3---------------4~--|
|-9------9---2---2-------4---------|
|-----10---0-----------4-----------|
|---10---------------2-------------|
|-8--------------------------------|

©delgelato
Login or Register to remove this ad.

7 comments on Lost Pieces

Awesome man but could you

5

Awesome man but could you split that into two guitars for us with the short fingers xD Sounds like you got the intro 100% to me aswell Nice

There's this song for 2

There's this song for 2 guitars in the official Chrono Cross Arrangement book.

...Wow Trang your quick. I

...Wow Trang your quick. I just got done typing that and there you are under me :I Spooky.

Better than waiting for ages

Better than waiting for ages to get an answer. :)

I agree ^^ My fingers feel

I agree ^^ My fingers feel the burn of this too :I Ill practice the intro and ending parts then split up the rest when I get these down.

...

Whats up with all that tabs..the mass size of the things on the sides of the page have it all screwed up. I cant even change text size to fix it :(

:]

Ah. perfect. somthng ive been lookn for. a solo guitar version. thanx alot man. ^_^