Ads

Lost Before Light (Chrono Cross) Guitar Tab

Submitted: Apr 13, 2008 by Maxinger (Last updated: Oct 16, 2009)

4
Average: 4 (2 votes)
Download | Listen
Game: Chrono Cross
Composer(s): Yasunori Mitsuda
Style: Arrangement, Fingerstyle
Series: Chrono

AutoScroll: Slow | Medium | Fast
Lost Before Light
Chrono Cross
Composed by Yasunori Mitsuda
Tabbed by Maximilian Gruber ([email protected])

Tuning is E A c# F# B E  (Tune down 3rd & 4th string half a step)

|---------0--5--4-------------------------------------|
|------2--2--------4--0--2--4-----2--4-----2--4--2----|
|---------------------------------3-----5-----3-------| repeat once
|------3-----3-----2-----2-----3-----3-----3-----3----| 
|---4-----------2-----2-----0-------------------------|
|-----------------------------------------------------|

|---------------0--2--4---4------5--2------0------------0--4--2---11------7------|
|------0--2--4---------------------------0----4------4-----4--------------7------|
|---3--0-----2-----3-----------3-------0----------2---------------7-------9------|
|---0-----0-----0-----0------3----------------0---------------------------10-----|
|-------------------------0---------2-------------------------------------9------|
|-2------------------------------------------------------------------------------|
Login or Register to remove this ad.