Login or Register to remove this ad.

Home Galdove (Chrono Cross) Guitar Tab

Submitted: Dec 30, 2007 by Kabukibear (Last updated: Sep 26, 2009)

5
Average: 5 (12 votes)
Download | Listen
Game: Chrono Cross
Composer(s): Yasunori Mitsuda
Style: Arrangement, Fingerstyle, Natural harmonics
Series: Chrono

Click here for a video example.

AutoScroll: Slow | Medium | Fast
Home Galdove                                   
~Chrono Cross~
Composed by: Yasunori Mitsuda
Arranged by: Justin Lincoln


Drop D Tuning

(Capo 5)



     E  E  E  E  E   Q    E     E  E  E  E  E   E   Q     
E||--------------------------|---------------------------|
B||--------------------------|---------------------------|
G||--------------------------|---------------------------|
D||--------0-----2s--4----0--|--L-----0-----5p--4p--0----|
A||-----0--------------------|-----------0---------------|
D||--0--------0--------------|-----0---------------------|


  E  E  E  E  E   Q    E     E  E  E  E  E  E  E  E   
--------------------------|--------------------------|
--------------------------|--------------------------|
--------------------------|--------------------------|
--------0-----2s--4-------|-----------0--------0-----|
-----0-----------------2--|--L--2--------0--------0--|
--0--------0--------------|--------0--------0--------|


  E  E  E  E  E   Q    E     E  E  E  E  E   E   Q     
--------------------------|---------------------------|
--------------------------|---------------------------|
--------------------------|---------------------------|
--------0-----2s--4----0--|--L-----0-----5p--4p--0----|
-----0--------------------|-----------0---------------|
--0--------0--------------|-----0---------------------|


                                           NH                                  
  E  E  E  E  E   Q    E     E  E  E  E    H           Q    E  E  E  E  E  E   
--------------------------|-------------------------|--5-------2--L-----5-----|
--------------------------|-------------------------|-------------------------|
--------------------------|----------------7--------|-------------------------|
--------0-----2s--4----0--|--L-----0-------7--------|----------------0--------|
-----0--------------------|-----0----------7--------|-------0--------------0--|
--0--------0--------------|-----------0----7--------|--0----------------------|


  E  E  E  E  E  E  E  E     Q    E  E  E  E  E  E     E  E  E  E  E  E  E  E   
--3--------0--------3-----|--2-------------------0--|--------------------0--2--|
--------------------------|----------3--------------|-----------0--2--3--------|
--------------0-----------|-------------2--0--------|-----2--------------------|
--------0--------4--2--0--|-------------------0-----|--------------------------|
-----0--------------------|-------0-----------------|--------0-----------0-----|
--0-----------------------|--0----------------------|--0-----------------------|


  Q    E  E  E  E  E  E     E  E  E  E  E  E  E  E     Q    E  E  E  E  E  E   
--5-------2--L-----5-----|--3--------0--------3-----|--2-------------------0--|
-------------------------|--------------------------|----------3--------3-----|
-------------------------|--------0-----3--2-----0--|----------------4--------|
----------------0--------|--------------------------|-------------4-----------|
-------0--------------0--|-----1--------------------|-------2-----------------|
--0----------------------|--0-----------------------|--0----------------------|


  E  E  E  E  Q    Q       Q    E  E  E  E  E  E     E  E  E  E  E  E  Q     
--------------2----0----|----------------0--------|-----------5--L----------|
------------------------|----------3--------3-----|-------------------------|
-----------0------------|--6----------0-----------|--------2----------------|
--------2---------------|-------0-----------------|-----0-----------0--4----|
-----3------------------|-------------------------|--------------------0----|
--0---------------------|--5-------------------5--|--4----------------------|


  Q    E  E  E  E  E  E     E  E  E  Q    E  E  E     Q    E  E  E  E  E  E   
--3-------------2--0-----|-------------------0-----|-------------------------|
----------------------3--|-----------2----3--------|--3----------------2--3--|
----------0--3-----------|--------4----------------|----------0--L-----------|
-------2-----------------|-----4-------------------|-------0--------0--------|
--1----------------------|--2-------------------0--|-------------------------|
-------------------------|-------------------------|--5----------------------|


  E  E  E  E  Q    E  E     E  E  E  E  E   Q    E   
-------------------------|--------------------------|
-----------3--2----0--2--|--3-----------------------|
--------2----------------|--------------------------|
-----2-------------------|--------0-----2s--4----0--|
--0----------------------|-----0--------------------|
-------------------------|--0--------0--------------|


  E  E  E  E  E   E   Q       E  E  E  E  E   Q    E   
---------------------------|--------------------------|
---------------------------|--------------------------|
---------------------------|--------------------------|
--L-----0-----5p--4p--0----|--------0-----2s--4-------|
-----------0---------------|-----0-----------------2--|
-----0---------------------|--0--------0--------------|


  E  E  E  E  E  E  E  E     E  E  E  E  E   Q    E   
--------------------------|--------------------------|
--------------------------|--------------------------|
--------------------------|--------------------------|
-----------0--------0-----|--------0-----2s--4----0--|
--L--2--------0--------0--|-----0--------------------|
--------0--------0--------|--0--------0--------------|


  E  E  E  E  E   E   Q       E  E  E  E  E   Q    E   
---------------------------|--------------------------|
---------------------------|--------------------------|
---------------------------|--------------------------|
--L-----0-----5p--4p--0----|--------0-----2s--4----0--|
-----------0---------------|-----0--------------------|
-----0---------------------|--0--------0--------------|


                NH                                                             
  E  E  E  E    H           Q    E  E  E  E  E  E     E  E  E  E  E  E  E  E   
-------------------------|--5-------2--L-----5-----|--3--------0--------3-----|
-------------------------|-------------------------|--------------------------|
----------------7--------|-------------------------|--------------0-----------|
--L-----0-------7--------|----------------0--------|--------0--------4--2--0--|
-----0----------7--------|-------0--------------0--|-----0--------------------|
-----------0----7--------|--0----------------------|--0-----------------------|


  Q    E  E  E  E  E  E     E  E  E  E  E  E  E  E     Q    E  E  E  E  E  E   
--2-------------------0--|--------------------0--2--|--5-------2--L-----5-----|
----------3--------------|-----------0--2--3--------|-------------------------|
-------------2--0--------|-----2--------------------|-------------------------|
-------------------0-----|--------------------------|----------------0--------|
-------0-----------------|--------0-----------0-----|-------0--------------0--|
--0----------------------|--0-----------------------|--0----------------------|


  E  E  E  E  E  E  E  E     E  E  E  Q    E  E  E     E  E  E  E  E  E  E  E   
--6--5-----------------0--|--2--------0-------2-----|--3--------2--------0-----|
--------------------1-----|--------3----------------|--------0--------0-----3--|
-----------0--2--3--------|-----2----------2-----2--|-----0--------0-----------|
--------------------------|-------------------------|--------------------------|
--------1-----------------|-------------------------|--------------------------|
--0-----------------------|--0----------------------|--5--------5--------5-----|


  Q    E  E  E  E  E  E     E  E  E  E  E  E  E  E     Q    E  E  E  E  E  E   
--5-------2--L-----5-----|--3--------0--------3-----|--2-------------------0--|
-------------------------|--------------------------|----------3--------------|
-------------------------|--------------0-----------|-------------2--0--------|
----------------0--------|--------0--------4--2--0--|-------------------0-----|
-------0--------------0--|-----0--------------------|-------0-----------------|
--0----------------------|--0-----------------------|--0----------------------|


  E  E  E  E  E  E  E  E     Q    E  E  E  E  E  E     E  E  E  E  E  E  E  E   
--------------------0--2--|--5-------2--L-----5-----|--6--5-----------------0--|
-----------0--2--3--------|-------------------------|--------------------1-----|
-----2--------------------|-------------------------|-----------0--2--3--------|
--------------------------|----------------0--------|--------------------------|
--------0-----------0-----|-------0--------------0--|--------1-----------------|
--0-----------------------|--0----------------------|--0-----------------------|


  E  E  E  E  E  E  E  E     E  Q    Q    Q    E     Q    E  E  E  E  E  E   
--2--------0--------2-----|--3--2----0------------|----------------0--------|
--------3-----------------|--3--3----3----3----L--|----------3--------3-----|
-----2-----------2-----2--|--0--0----0----0----L--|--6----------0-----------|
--------------------------|-----------------------|-------0-----------------|
--------------------------|--3-------3----3----L--|-------------------------|
--0-----------0-----------|-----------------------|--5-------------------5--|


  E  E  E  E  E  E  Q       Q    E  E  E  E  E  E     E  E  E  Q    E  E  E   
-----------5--L----------|--3-------------2--0-----|-------------------0-----|
-------------------------|----------------------3--|-----------2----3--------|
--------2----------------|----------0--3-----------|--------4----------------|
-----0-----------0--4----|-------2-----------------|-----4-------------------|
--------------------0----|--1----------------------|--2-------------------0--|
--4----------------------|-------------------------|-------------------------|


  Q    E  E  E  E  E  E     E  E  E  E  Q    E  E     E  E  E  E  E  E  E  E   
-------------------------|-------------------------|-----------------------0--|
--3----------------2--3--|-----------3--2----0--2--|--3--------3--L-----------|
----------0--L-----------|--------2----------------|-----0--2--------2--L-----|
-------0--------0--------|-----2-------------------|--------------------------|
-------------------------|--0----------------------|--3-----------------------|
--5----------------------|-------------------------|--------------------------|


  E  E  E  E  E  E  E  E     E  E  E  E  E  E  E  E   
--L-----------2-----0-----|--------------------------|
-----------3-----------3--|-----------2--L--------3--|
-----2--------------------|--------4-----------------|
--------------------------|-----4--------------4-----|
--------3--------3--------|--2--------------2--------|
--------------------------|--------------------------|


  E  E  E  E  E  E  E  E     E  E  E  E  E  E  E  E   
--------------0-----5-----|--5--------3--------7-----|
--L--------0--------------|--0-----0--------0--------|
--------------------------|--0--0--------0--------0--|
--------4-----------------|--------------------------|
-----2-----------2-----0--|--3-----------------------|
--------------------------|--------------------------|


  E  E  E  E  E  E  E  E     Q    E  E  E  E  E  E     E  E  E  E  E  E  E  E   
--0-----------------------|-------------------------|--------------------------|
--0--1--0-----------------|--3----2-----------------|--------------------------|
--0--------0--L-----0--2--|--2-------2--------------|--------------------------|
-----------------2--------|----------------2--L--4--|--L--2--0-----------------|
--3-----------------------|--2----------2-----------|-----------4--0--------0--|
--------------------------|-------------------------|-----------------2--4-----|


  E  Q    Q    E  E  E     Q    E  E  Q    E  E     E  Q    Q    E  E  E   
------------------------|------------------------|------------------------|
-----2----2-------2-----|--3----3----------------|-----0----0-------0-----|
-----2----2-------2-----|--2----2-----2----2-----|-----0----0-------0-----|
------------------------|-------------0----0-----|------------------------|
------------------------|------------------------|------------------------|
--5------------5-----5--|--4-------4----------4--|--3------------3-----3--|


  Q    E  E  Q    E  E     E  Q    Q    E  E  E     Q    E  E  Q    E  E   
------------------------|------------------------|-------------1----1-----|
--1----1----------------|------------------------|------------------------|
--0----0-----0----0-----|-----2----2-------2-----|--3----3-----3----3-----|
------------------------|-----3----3-------3-----|--3----3----------------|
-------------3----3-----|------------------------|------------------------|
--2-------2----------2--|--1------------1-----1--|--0-------0----------0--|


  Q.     E   Q    Q       H        Q    Q       Q.     E  Q    Q     
--3------3s-------5----|--L--------2---------|----------------------|
--3------3s-------5----|--L--------3----3----|--3------3-------3----|
--0------0-------------|----------------2----|--0------0-------0----|
-----------------------|---------------------|--0------0-------0----|
-----------------------|---------------------|----------------------|
--2----------2---------|--4------------------|--5---------5---------|

                         Rit. - - - - - -
  H        H             Q    Q    Q    Q       Q    H.             
---------------------||-----------------0----|--L-----------------||
--3--------2---------||------------0---------|-------4------------||
--2--------2--------*||----------------------|--------------------||
--2--------2--------*||-------4--------------|--------------------||
--0------------------||--2-------------------|--------------------||
---------------------||----------------------|--------------------||




Duration Legend
---------------
W - whole
H - half
Q - quarter
E - 8th
S - 16th
T - 32nd
X - 64th
. - note dotted
|-n-|  - n-tuplets


Tablature Legend
----------------
L - tied note
NH - natural harmonic
h - hammer on
p - pull off
s - legato slide
Rit. - Gradually slow down
Login or Register to remove this ad.

8 comments on Home Galdove

Just beautiful. You're

Just beautiful. You're really starting to get good at this man.

Very very nice Kabuki, like

Very very nice Kabuki, like ALWAYS!
Let me borrow your skills for a bit. Lol

simply beautiful

5

simply beautiful

The midi sounded pretty

5

The midi sounded pretty cool. Any chance we get to see the video of this song ?

Sure thing, just uploaded it

Sure thing, just uploaded it on youtube. Click the "video example" link on the right hand side of this page.

This may be a stupid

This may be a stupid question- but is the Capo@5 supposed to be on this tab? I don't see one in the recording you made so I'm assuming that's the case.

Sounds great (what I can play of it!) in any case.

Great Tab!

12.75

Long overdue, but great tab man. One of my favs for sure.

My recording of this

5

My recording of this song!

https://youtu.be/ujnS-Co4I4A