Dream's Creation (Chrono Cross) Guitar Tab

Submitted: Jan 12, 2009 by yoshistrings (Last updated: Dec 04, 2010)

5
Average: 5 (6 votes)
Download | Listen
Game: Chrono Cross
Composer(s): Yasunori Mitsuda
Style: Arrangement, Fingerstyle
Series: Chrono

AutoScroll: Slow | Medium | Fast
  Q.  E.  E.  E.  Q.  E.  E.  E.   E.  Q.  H  Q.  E.  H.
|-------------2---3---5-------0-----------------------2-----|
|--------------------------------------3---2--2-------------|
|---------2---------------------------------------4---------|
|-----0-------------------------------------------4---------|
|-------------------------0-------------------2-------------|
|-3---------------------------------------------------------|


  Q.  Q.  Q.  Q.  Q.  E.  E.  E.  Q.  E. E. Q.  Q.  H  Q.  E.  H  Q.
|-----------------------------2---3---5-----7---2---0--0----------0----|
|-----3---2----------------------------------------------------0-------|
|-------------2-----------2--------------------------------------------|
|-----4-------4-------0------------------------------------2-----------|
|-2-------0------------------------------0-----------------------------|
|-----------------3------------------------------------0---------------|


  H  S.   S.  Q  E..  E..
|-2--2---h3---2--0-----------|
|---------------------2------|
|----------------------------|
|----------------------------|
|----------------------------|
|-2--------------------------|


  Q.   E. E. E. Q.     E. E. E.  E. Q.     H    Q.   E.   E.  Q.  Q.
|------------2--3----|-5-----0-----------|--------------|-2-------------|
|--------------------|--------------3----|-2----2-------|---------------|
|---------2----------|-------------------|-----------4--|---------4-----|
|------0-------------|-------------------|-----------4--|-----4---------|
|--------------------|----0--------------|------2-------|---------------|
|-3------------------|-------------------|--------------|---------------|


  Q.  Q.  E.  E.   E.  E.  Q.  Q.  E.  E.   E.  E.  Q.  Q.  E.  E.  E.  E.
|-------------0---h2-------------------0---h2---0-----------0--------------|
|---------3------------3-----------3----------------------------0---3---2--|
|--------------------------------------------------------------------------|
|-----4------------------------0------------------------2------------------|
|-2-------0-----------------------------------------0-------0--------------|
|--------------------------3-------3---------------------------------------|


  H  H  Q.  H  H  Q.  Q.  E.  E.  Q.  Q.  Q.  E.  E.  Q.  Q.
|-----------------------------2-----------0-------5-------------|
|-----------------2---0---------------------------5-------------|
|-----------3--4--3-------------------0-------------------2-----|
|-------4---4-------------0---------------------------2---------|
|----4------------------------------------0---4-----------------|
|-2-------------------3-----------3-----------------------------|


  Q.  E.  E.  Q.  Q.  Q.  Q.  Q.  Q.
|-2-------------------------------------|
|-2-------2-------2---3---2---3---------|
|---------------------------------2-----|
|-----2---------------------------------|
|-----------------4---2-------0---------|
|-2-----------2-------------------------|


  Q.   E. E. Q.    Q.   Q.   E. E.  Q.   Q.  Q.  E.  E.  Q.  Q.
|---------2-------------0-------5--------------------9-------7-----|
|-0-----------------------------5------------7---------------------|
|------------------0---------------------2-------------------------|
|------0----------------------------2------------7-----------------|
|-----------------------0----4-------------------------------------|
|-3----------3-------------------------------7-----------7---------|


  Q.   Q.   Q.   Q.    Q.   E. E. Q.    Q.   Q.   E. E.  Q.   Q.
|------------------------------2-------------0---------------------|
|------3----2----------0-----------------------------2-------------|
|----------------2----------------------0------------3--------2----|
|------4---------2----------0----------------------------2---------|
|-2---------0--------------------------------0----4----------------|
|----------------------3----------3--------------------------------|


  Q.  E.  E.  Q.  Q.   Q.  Q.  Q.  Q.
|----------------------------------------|
|---------2-------2----3---2---3---------|
|-2--------------------------------2-----|
|----------------------------------------|
|-----0----------------2-------0---------|
|-2-----------2--------------------------|


  Q.   E. E. Q.    Q.   Q.  E.  E.  Q.  Q.  W
|---------2-------------0------------------------|
|-0-----------------------------3-------2---0----|
|------------------0------------------------2----|
|------0----------------------------2-------2----|
|-----------------------0---4-----------4---2----|
|-3----------3-----------------------------------|


Duration Legend
---------------
W - whole; H - half; Q - quarter; E - 8th; S - 16th; T - 32nd; X - 64th; a - acciaccatura
+ - note tied to previous; . - note dotted; .. - note double dotted
Uncapitalized letters represent notes that are staccato (1/2 duration)
Irregular groupings are notated above the duration line
Duration letters will always appear directly above the note/fret number it represents the
duration for.  Duration letters with no fret number below them represent rests.  Multi-
bar rests are notated in the form Wxn, where n is the number of bars to rest for.  Low
melody durations appear below the staff

Tablature Legend
----------------
 h   - hammer-on
 p   - pull-off
 b   - bend
 pb  - pre-bend
 r   - bend release (if no number after the r, then release immediately)
 /\  - slide into or out of (from/to "nowhere")
 s   - legato slide
 S   - shift slide
  - natural harmonic
[n]  - artificial harmonic
n(n) - tapped harmonic
 ~   - vibrato
 tr  - trill
 T   - tap
 TP  - trem. picking
 PM  - palm muting
\n/  - tremolo bar dip; n = amount to dip
 \n  - tremolo bar down
 n/  - tremolo bar up
/n\  - tremolo bar inverted dip
 =   - hold bend; also acts as connecting device for hammers/pulls
 <>  - volume swell (louder/softer)
 x   - on rhythm slash represents muted slash
 o   - on rhythm slash represents single note slash

Misc Legend
-----------
 |  - bar
||  - double bar
||o - repeat start
o|| - repeat end
*|  - double bar (ending)
 :  - bar (freetime)
 $  - Segno
 &  - Coda
Tempo markers -  = BPM(8/16=s8/s16), where s8 = swing 8ths, s16 = swing 16ths



Login or Register to remove this ad.

3 comments on Dream's Creation

Wow

5

this is a really great tab, thanks.
ChronoTrigger-NuWalking.gif

Whoa

Isn't this the vocal line of Radical Dreamers? o.o

Measure separations would be

Measure separations would be suuuuper useful.