Login or Register to remove this ad.

Fields of Time (Home World) (Chrono Cross) Guitar Tab

Submitted: Sep 30, 2008 by Kabukibear (Last updated: Nov 27, 2009)

5
Average: 5 (11 votes)
Download | Listen
Game: Chrono Cross
Composer(s): Yasunori Mitsuda
Style: Fingerstyle, Transcription
Series: Chrono

AutoScroll: Slow | Medium | Fast
Fields of Time (Home World)                           
~Chrono Cross~
Composed by: Yasunori Mitsuda
Tabbed by: Justin Lincoln

(Capo 1)



      E  S S S E  S S S E  E  E     E  S S S E  S S S E  E  E   
E||------------------------------|-----------------------------|
B||---------------0-L------1--0--|--------------0-L------1--0--|
G||*-------0-L-2--------0--------|-------0-L-2--------0--------|
D||*-----------------------------|-----0------------0----------|
A||------3------------3----------|-----------------------------|
E||---1--------------------------|--3--------------------------|


  E  S S S E  S S S E  E  E     E  S S S E  S S S E  E  E   
--------------------------3--|-----------------------------|
-------0-L-1--3-L---0--1-----|-------0-L-1--3-L---0--1--0--|
-----------------------------|-----------------------------|
-----2------------2----------|-----2------------2----------|
--0--------------------------|--0--------------------------|
-----------------------------|-----------------------------|


  E  S S S E  S S S E  E  E     E  S S S E  S S S E  E  E   
-----------------------------|-----------------------------|
--------------0-L------1--0--|-----------0-----------0-----|
-------0-L-2--------0--------|-------0-L----2-L---0-----0--|
-----------------------------|-----------------------------|
-----3------------3----------|-----2------------2----------|
--1--------------------------|--0--------------------------|


  E  S S S E  S S S E  E  E     E  S S S E  S S S E  E  E   3x
-----------------------------|--------------------------0---||
--------------3-L---------3--|--2-----------2-L------3------||
-------0-L-2--------0--2-----|-----------0--------0--------*||
-----2------------2----------|-------2-L--------2----------*||
--0--------------------------|-----0------------------------||
-----------------------------|------------------------------||


   E  S S S E  S S S E  E  E     E  S S S E  S S S E  E  E   
---------------1-L---------1--|--------------1-L---------1--|
------------------------------|-----------------------------|
*-------2-L-3--------2--3-----|-------2-L-3--------2--3-----|
*-----0------------0----------|-----0------------0----------|
------------------------------|-----------------------------|
---3--------------------------|--3--------------------------|


  E  S S S E  S S S E  E  E     E  S S S E  S S S E  E  E     
-----------------------------|------------------------------||
--------------3-L---------3--|--------------3-L---------3---||
-----------0-----------0-----|-----------0-----------0-----*||
-------4-L----------4--------|-------4-L----------4--------*||
-----2------------2----------|-----2------------2-----------||
--0--------------------------|--0---------------------------||


  E  S S S E  S S S E  E  E     E  S S S E  S S S E  E  E   
-----------------------------|-----------------------------|
-----------3--1-L------3--1--|-----------3--1-L------3--1--|
-------0-L----------0--------|-------0-L----------0--------|
-----1------------1----------|-----1------------1----------|
--1--------------------------|--1--------------------------|
-----------------------------|-----------------------------|


  E  S S S E  S S S E  E  E     E  S S S E  S S S E  E  E   
-----------------------------|-----------------------------|
-----------1-----------1-----|-----------1-----------1-----|
-----------------------------|-----------------------------|
-----0-2-L----3-L-0-2-----3--|-----0-2-L----3-L-0-2-----3--|
--0--------------------------|--0--------------------------|
-----------------------------|-----------------------------|


  E  S S S E  S S S E  E  E     E  S S S E  S S S E  E  E   
-----------------------------|-----------------------------|
-----------3-----------3-----|-----------------------1-----|
-------0-L----0-L---0-----0--|-------0-L-3--2-L---0-----3--|
-----3------------3----------|-----1------------1----------|
--1--------------------------|--1--------------------------|
-----------------------------|-----------------------------|

                                                 Da Capo
  E  S S S E  S S S E  E  E     E  S S S E  S S S E  E  E    
-----------------------------|-----------------------------||
-----------3-----------3-----|-----------3-----------3-----||
-------0-L----2-L---0-----2--|-------0-L----2-L---0-----2--||
-----0------------0----------|-----0------------0----------||
--0--------------------------|--0--------------------------||
-----------------------------|-----------------------------||




Duration Legend
---------------
W - whole
H - half
Q - quarter
E - 8th
S - 16th
T - 32nd
X - 64th
. - note dotted
|-n-|  - n-tuplets


Tablature Legend
----------------
L - tied note
Da Capo - Play from the beginning
Login or Register to remove this ad.

3 comments on Fields of Time (Home World)

Isn't this the first song in

Isn't this the first song in the official CC Arrangement book? Well I wonder, cause apart from the beginning it sounds completely different.

I don't know, maybe. I had

I don't know, maybe. I had gotten it into my head to do a note for note transcription project of all the chrono cross songs featuring a plucked instrument...I didn't get too far though, I only got 2 of them done before moving on.

i think this is perfect with

5

i think this is perfect with the capo on the second :) good work!