Login or Register to remove this ad.

Dimension Break (Chrono Cross) Guitar Tab

Submitted: Jun 19, 2008 by polkas (Last updated: Sep 15, 2009)

5
Average: 5 (3 votes)
Download | Listen
Game: Chrono Cross
Composer(s): Yasunori Mitsuda
Style: Arrangement, Fingerstyle
Series: Chrono

AutoScroll: Slow | Medium | Fast
Chrono Cross - Dimension Break
Composed by: Yasunori Mitsuda
Arranged by: Pablo Bosque (Polkas)


E||--3-------------0--|--1--------------|----------------|-----------------|
B||---------1--3------|--------0---3----|--1-------------|------------1----|
G||------0------------|--------0--------|-------0--------|------0----------|
D||-------------------|-----------------|-------3--------|------3----------|
A||--3----------------|--3--------------|--3-------------|--3--------------|
E||-------------------|-----------------|----------------|-----------------|


E||--3-------------0--|--1---0----3-----|----------------|-----------------|
B||---------1--3------|--1--------------|--3-------------|-------------1---|
G||------0------------|--2--------------|--4-------------|--4--------------|
D||-------------------|-----------------|---------7------|--5--------------|
A||--3----------------|------3----------|-----5----------|-----------------|
E||-------------------|--1--------------|--3-------------|--3--------------|


E||--3-------------0--|--1--------------|--0-------------|-----------------|
B||---------1--3------|-------0----3----|--1-------------|-----------------|
G||------0------------|-------1---------|----------------|---2-------------|
D||-------------------|-----------------|------2---------|-----------------|
A||--3----------------|--3--------------|--0-------------|-----------------|
E||-------------------|-----------------|----------3-----|---2-------------|

                                                                         
E||-------------0-----|-----------------|----------------|-----------------|
B||--1----------------|---3-------------|--1-------------|------------5-6--|
G||--2----------------|---4---------5---|--2-------------|----0------------|
D||--3----------------|-----------------|----------------|----2------------|
A||------3------------|-----------------|--3-------------|----3------------|
E||--1----------------|---3-------------|----------3-----|-----------------|


E||--3------8----7----|--5---------3----|--3-------------|-----0---1-------|
B||--5----------------|-----------------|--3-------------|--3--------------|
G||-------------------|------2----------|----------------|--4--------------|
D||-------------------|-----------------|----------------|-----------------|
A||--3------7---------|------3----------|----------5-----|-----------------|
E||-------------------|--1--------------|--3-------------|--4--------------|


E||--0----5----0------|-------------0---|----------------|-----------------|
B||--1----------------|--1------3-------|--3-------------|------------5-6--|
G||--0----------------|--2--------------|--5-------------|--4--------------|
D||-------------------|--3--------------|--5-------------|--5--------------|
A||--0----------------|------3----------|---------5------|-----------------|
E||------------3------|--1--------------|--3-------------|-----------------|


E||--3------8----7----|--5---------3----|--3-------------|--0--1--0--------|
B||--5----------------|-----------------|--3---------3---|--1-----------3--|
G||-------------------|------2----------|---------5------|--0-----2--------|
D||-------------------|-----------------|----------------|-----------------|
A||--3------7---------|------3----------|------5---------|--0--------------|
E||-------------------|--1--------------|--3-------------|--------------3--|


E||-------------------|--0---1----------|----------------|-----------------|
B||--1----------------|-----------------|--3-------------|--1--------------|
G||--2-------------2--|-----------------|--4-------5-----|--2------0-------|
D||-------------3-----|-----------------|----------------|---------2-------|
A||------3------------|-----------------|-------5--------|--3------3-------|
E||--1----------------|-----------------|--3-------------|------3----------|
Login or Register to remove this ad.

3 comments on Dimension Break

I've been trying to learn

5

I've been trying to learn this since you posted it. Very impressive!

Thx Krim ;) Here is the real

Thx Krim ;)
Here is the real mid of this tab, I hope this help you.
http://www.gametabs.net/forum/viewtopic.php?f=4&t=863
Cya!

Updated the tab with the

Updated the tab with the correct MIDI