Login or Register to remove this ad.

On The Beach of Dreams - Another World (Chrono Cross) Guitar Tab

Submitted: Oct 01, 2007 by Stamen47 (Last updated: Aug 03, 2010)

4.785715
Average: 4.8 (14 votes)
Download | Listen
Game: Chrono Cross
Composer(s): Yasunori Mitsuda
Style: Arrangement, Fingerstyle
Series: Chrono

This song is also called Another World

AutoScroll: Slow | Medium | Fast
On The Beach of Dreams - Another World
Chrono Cross
Composed by Yasunori Mitsuda

Guitar
     E  S E  S S S E  S E  S S S    E  S E  S S S E  S E  S E
E||-------1----0-1------1----0-1-|-------1----0-1------0-------|
B||------------------------------|--------------------------3--|
G||-----2----2--------2----2-----|-----2----2--------2----2----|
D||--0-------------0-------------|-----------------------------|
A||--------------------------3---|--1-------------1------------|
E||------------------------------|-----------------------------|

  E  S E  S S S E  S E  S E     E  S E  S S S E  S E  S E
-------5----3-5------6----5--|-------3----1-3------1----0--|
-----------------------------|-----------------------------|
-----2----5--------5----5----|-----0----0--------0----0----|
-----------------------------|-----------------------------|
--3-------------3------------|--3-------------3------------|
-----------------------------|-----------------------------|

    E  S E  S S S  E  S E  S S S    E  S E  S S S E  S S S S E
|-----------------10-------------|--1------------------------1--|
|---3----------------------------|-------3----1-3--------3------|
|*-----2----2--------------------|----------2--------------2----|
|*--0----3----2-3--0----7--0-----|-----3-------------2-3-----0--|
|---------------------8------7-8-|--1-------------1-------------|
|--------------------------------|------------------------------|

  E  S E  S S S E  S E  S E     E  S E  S S S E  S E  S E
--5------------------6----5--|--3---------------------------||
------------5-6--------------|-------6----5-6------6----5---||
-------5-------------5----5--|--5--------------------------*||
-----3----3--------3----3----|-----5----5--------5----5----*||
--3-------------3------------|--3-------------3-------------||
-----------------------------|------------------------------||

  E  S E  S S S E  S E  S S S    E  S E  S S S E  S E  S S S
----------------1-------------|--0-----------0---------------|
--3-----------------------1-3-|-------0----------------------|
-------2------2------2--------|-----5------7---5---------2---|
-----3------3------3----3-----|--5-------7----------2--------|
--1-------------1-------------|--0-------------0--3----3-2-3-|
----------1-------------------|------------------------------|

  E  S S S S S S E  S E  S S S    E  S E  S S S E  S E  S S S
-----0----------------0--------|-------0-------------0--------|
--3------3-------3---------1-3-|------------1-3-----------1-3-|
-----2--------------2----2-----|-----2----2--------2----2-----|
--0------------0---------------|--0-------------0-------------|
-------3---0-3-----------------|------------------------------|
-------------------------------|------------------------------|

  E  S S S S S S E  S E  S S S    E  S E  S S S E  S E  S S S
-----------------1-------------|--0-------------3-------------|
---------3------------3----1-3-|------------0-------------0---|
-------2-------0---------2-----|-------5------5------5------5-|
-----3-------3------3----------|-----5-------------5----5-----|
--1--------1-----1-------------|--0-------7-----0-------------|
-------------------------------|------------------------------|

  E  S S S S S S E  S E  S S S    E  S E  S S S S S S S S S S S
---------3-----------------1---|--0-----------------0---1---0---|
-------0-------0-3-----------0-|------------0---3---------------|
-------------2--------0----2---|-------6------6-----0---2---0---|
-----0-----0--------0----------|----------5-----3---------------|
-------------------------0-----|-----4------------0---0---0---0-|
--3--------------3-------------|--5-----------------------------|

  Q.     Q.     Q
--5-------------------||
--5-------------------||
--6------------------*||
--7------5-----------*||
--0-------------7-----||
----------------------||

Duration Legend
---------------
W - whole
H - half
Q - quarter
E - 8th
S - 16th
T - 32nd
X - 64th
. - note dotted
|-n-|  - n-tuplets
Login or Register to remove this ad.

13 comments on On The Beach of Dreams - Another World

Whoa! This is such a cool

Whoa! This is such a cool song, I've never heard of it before this tab. Awesome tab dude

Dude, you did well with

Dude, you did well with these. However, I'm not sure, but I think its in a different tuning. Might wanna check that out.

I'm surprised....

5

I'm surprised more people haven't seen this tab. It's awesome, who wouldn't wanna play a solo arrangement of this song?

Damn, I NEED to play this.

Damn, I NEED to play this. Your tabs are just awesome, sir Ronito!

This one is by Stamen :X Both

This one is by Stamen :X

Both make awesome tabs, though!

Oh Stamen, with your

2

Oh Stamen, with your unplayable tabs

Yeah, I have that problem

Yeah, I have that problem with his stuff as well.

Watching his recordings, it's clear they can sound good; I just can't do it.

I'm Planning On Recording

I'm Planning On Recording Soon. Before Hand. I'm Poor. I Just Have A Little Camera To Use. :D I Have This Song Down. So I'll Post When I Can. ^^ I Love This Arrangement Btw. Thanks Stamen!!

Dude this is awesome lol

5

Man i like ur version more than lonlonjp's ur is so awesome >.< keep it up

re-fingerings

I just went through and changed some of the fingerings and notes so it's more playable and so the voice leading makes more sense. The changes I made are in red.

Guitar
     E  S E  S S S E  S E  S S S    E  S E  S S S E  S E  S E
E||-------1----0-1------1----0-1-|-------1----0-1------0-------|
B||------------------------------|--------------------------3--|
G||-----2----2--------2----2-----|-----2----2--------2----2----|
D||--0-------------0-------------|-----------------------------|
A||--------------------------3---|--1-------------1------------|
E||------------------------------|-----------------------------|

  E  S E  S S S E  S E  S E     E  S E  S S S E  S E  S E
-------5----3-5------6----5--|-------3----1-3------1----0--|
-----------------------------|-----1-----------------------|
-----2----5--------5----5----|----------0--------0----0----|
-----------------------------|-----------------------------|
--3-------------3------------|--3-------------3------------|
-----------------------------|-----------------------------|

    E  S E  S S S  E  S E  S S S    E  S E  S S S E  S S S S E
|-----------------10-------------|--1------------------------1--|
|---3----------------------------|-------3----1-3--------3------|
|*-----2-------------------------|----------2--------------2----|
|*--0----3-/7------0----7--0-2-3-|-----3-------------2-3-----0--|
|-------------7-8-----8----------|--1-------------1-------------|
|--------------------------------|------------------------------|

  E  S E  S S S E  S E  S E     E  S E  S S S E  S E  S E
--5------------------6----5--|--3---------------------------||
------------5-6--------------|-------6----5-6------6----5---||
-------5-------------5----5--|--5--------------------------*||
-----3----3--------3----3----|-----5----5--------5----5----*||
--3-------------3------------|--3-------------3-------------||
-----------------------------|------------------------------||

  E  S E  S S S E  S E  S S S    E  S E  S S S E  S E  S S S
----------------1-------------|--0-----------0---------------|
--3-----------------------1-3-|-------0----------------------|
-------2------2------2--------|-----5------7---5---------2---|
-----3------3------3----3-----|--5-------7----------2--------|
--1-------------1-------------|--0-------------0--3----3-2-3-|
----------1-------------------|------------------------------|

  E  S S S S S S E  S E  S S S    E  S E  S S S E  S S S S S S
-----0----------------0--------|-------0-----------1---0-------|
--3------3-----------------1-3-|-----3------1-3----3-------1-3-|
-----2-----------2-------2-----|--2-------2----------2---2-----|
--0------------0----0----------|--0-------------0--------------|
-------3---0-3-----------------|-----------------------3-------|
-------------------------------|-------------------------------|

  E  S S S S S S E  S E  S S S    E  S E  S S S E  S E  S S S
-----------------1-------------|--0-------------3-------------|
---------3------------3----1-3-|------------0-------------0-1-|
-------2-----0-2---------2-----|-------5------5------5--0-----|
-----3-----3--------3----------|-----5-------------5----------|
--1--------------1-------------|--0-------7-----0-------------|
-------------------------------|------------------------------|

  E  S S S S S S E  S E  S S S    E  S E  S S S S S S S S S S S
---------3-----------------1---|--0-----------------0---1---0---|
-------0-------0-3-----------0-|-------2----0-2-3---------------|
-------------2--------0----2---|-----0----0---------0---2---0---|
-----0-----0--------0----------|----------------3---------------|
-------------------------0-----|--0---------------0---0---0---0-|
--3--------------3-------------|--------------------------------|

  Q.     Q.     Q
--5-------------------||
--5-------------------||
--6------------------*||
--7------5-----------*||
--0-------------7-----||
----------------------||

The prodigal son returns!

The prodigal son returns!

Awesome tab. Btw I applied

5

Awesome tab. Btw I applied Kabukibear 's hammer note to your tab => easier to play (i'm not good enought ATM)
(look at http://www.gametabs.net/playstation/chrono-cross/on-the-beach-of-dreams-...)

Still fantastic, I'm glad I

5

Still fantastic, I'm glad I played through this one again!