Login or Register to remove this ad.

Another Termina (Chrono Cross) Guitar Tab

Submitted: Dec 27, 2007 by Kabukibear (Last updated: Sep 26, 2009)

4.733335
Average: 4.7 (15 votes)
Download | Listen
Game: Chrono Cross
Composer(s): Yasunori Mitsuda
Style: Arrangement, Fingerstyle
Series: Chrono

AutoScroll: Slow | Medium | Fast
Another Termina                                 
~Chrono Cross~
Composed by: Yasunori Mitsuda
Arranged by: Justin Lincoln

Drop D tuning

Swing it!

     S S S S S S    S S S S S S    S S S S S S    S S S S S S    S S S S S S  
E||----0---0---0-|----0---0---0-|----0---0---0-|----0-2-0---0-|----0---0---0-|
B||--------------|--------------|--------------|----------3---|--------------|
G||--2---2---2---|--2---2---2---|--2---2---2---|--2-----------|--2---2---2---|
D||--2-----------|--2-----------|--------------|--0-----------|--2-----------|
A||--0-----------|--------------|--0-----------|--------------|--0-----------|
D||--------------|--------------|--0-----------|--------------|--------------|


                                        |-3-|                                
  S S S S S S    S S S S S S    S S S S S S S    S S S S S S    S S S S S S  
----0---0---0-|----0---0---0-|----------------|--0-----------|--------------|
--------------|--------------|--3-2-3-0-2-0---|--------------|--3-----------|
--2---2---2---|--2---2---2---|--------------2-|------2-------|------2-------|
--2-----------|--------------|----------------|----2---2---2-|----2---2---2-|
--------------|--0-----------|--0---0---0-----|--0-------0---|--0-------0---|
--------------|--0-----------|--0---0---0-----|--------------|--------------|


  S S S S S S    S S S S S S    S S S S S S    S S S S S S    S S S S S S  
--------------|--------------|--0-----------|--------------|--------------|
--2-----0-----|--0-----------|----------2---|--3-----2-0---|--------------|
------2---2---|----------2---|------2-------|------2-------|--2-----------|
----2-------2-|------0-------|----2---2---2-|----2-------2-|------0---2---|
--0-----------|----0---0---0-|--0-------0---|--0-----------|----0---0---0-|
--------------|--0-------0---|--------------|--------------|--0-----------|


   S S S S S S    S S S S S S    S S S S S S    S S S S S S    S S S S S S  
---------------|--0-----------|--------------|--------------|--------------|
---------------|--------------|--3-----------|--2-----0-----|--0-----------|
---------------|------2-------|------2-------|------2---2---|----------2---|
--/4---2---0---|----2---2---2-|----2---2---2-|----2-------2-|------0-------|
-----0---0---0-|--0-------0---|--0-------0---|--0-----------|----0---0---0-|
---0-----------|--------------|--------------|--------------|--0-------0---|


  S S S S S S    S S S S S S    S S S S S S     S S S S S S    E  S S E   
--0-----------|--------------|--------------|---------------|------------|
----------2---|--3-----2-0---|--------------|---------------|---------0--|
------2-------|------2-------|--2-----------|---------------|--1----2----|
----2---2---2-|----2-------2-|------0---2---|--/7---6---2---|--2---------|
--0-------0---|--0-----------|----0---0---0-|-----0---0---0-|------------|
--------------|--------------|--0-----------|---0-----------|--2--2------|


  E  S S E     E  S S E     S S S S S S     E  S S E     E  S S E   
------------|------------|---------------|------------|------------|
------------|------------|---------------|---------0--|---------2--|
--2--2------|------------|------2---1----|--1----2----|--2---------|
--2------2--|--4----2-0--|--2-----2---2--|--2---------|--4--4------|
--4----4----|--0---------|----0----------|------------|------------|
------------|--0--0------|---------------|--2--2------|--4----4----|


  S S S S S S    S S S S S S    S S S S S S    S S S S S S    S S S S S S  
--------------|--------------|--------------|--0-----------|--------------|
--3-----2-0---|--0-----------|--0-------0---|------0-------|----------0---|
------0-----0-|------0---2---|------2-------|----------2---|------1-------|
----0---------|----0---0---0-|----2---2---2-|----2---2---2-|----2---2---2-|
--------------|--------------|--------------|--------------|--------------|
--5-----------|--5-----------|--2-----------|--2-----------|--2-----------|


  Q    E       E  S S S S S S    S T T S S S S S S    E  S S E  E   
--0----0--||------0-----------|----------------0---|--5--4-5-0-----|
--0----0--||----------3---2---|--0-2-0---0-2-3-----|------------2--|
--1----1--||*--2----2---2---2-|--------2---------2-|---------------|
----------||*--2--------------|--------------------|---------------|
----------||---0--------------|--------------------|--0------------|
--2-------||------------------|--------------------|---------------|


  |-3-|                                                                     
  S S S E  E  E       E  S S S S    S S S S S S    E  S S S S    E  E  S S  
----0-2-----------||-------------|--------------|-------------|--0--0------|
--3-----0---------||-------------|--------------|--0--0-----0-|--0--0--2-3-|
-----------2--1--*||--2--2-----2-|----2---2---2-|--0--0-----0-|--0--0------|
-----------------*||--2--2---2---|----2---2---2-|--0--0---0---|------------|
------------------||--0----0-----|--0---0---0---|-------------|------------|
--0--------2------||-------------|--------------|--5----5-----|--5---------|


  E  S S S S    E  E  E     E  S S S S    E  E  E     S S S S S S  
-------------|-----------|-------------|-----------|--------------|
--2--2-----2-|-----------|-------------|--1--1--0--|--------------|
--2--2-----2-|--2--2-----|--0--0-----0-|--0--0--0--|--2-2-----2---|
--4--4---4---|--4--4-----|-------------|-----------|--2-2---2---2-|
-------------|-----------|--3--3---3---|-----------|--0---0-------|
--4----4-----|--4-----4--|--3----3-----|--2-----2--|--------------|

                                Da Capo
  S S S S S S    S S S S S S    Q.       
--------------|----------0---|--5------||
--------------|--2-2-----2---|--2------||
--2-2-----2---|--2-2-----2---|--2------||
--2-2---2---2-|--2-2---2---2-|--2------||
--0---0-------|--0---0-------|--0------||
--------------|--------------|---------||




Duration Legend
---------------
W - whole
H - half
Q - quarter
E - 8th
S - 16th
T - 32nd
X - 64th
. - note dotted
|-n-|  - n-tuplets


Tablature Legend
----------------
L - tied note
/ -  slide into from below or out of upwards
Da Capo - Go back to the beginning and play again
Login or Register to remove this ad.

9 comments on Another Termina

Swing pieces FTW!!

Swing pieces FTW!!

This is very nice. It's sort

This is very nice. It's sort of hard to grasp the correct fingering, but I'm getting it.

I

I <3<3<3<3<3<3<3<3<3 this arrangement

lol really cool! xD have a

lol really cool! xD
have a vid of this song?

what archard said.

5

what archard said.

I love it!

5

I love it!

Still one of my favorite

5

Still one of my favorite pieces on this site

thedstring said Still one of

thedstring said

Still one of my favorite pieces on this site

Always wondered why noone submitted a recording for that yet, maybe I will.

Oh I didn't realize no one

Oh I didn't realize no one has, well if I wasn't so busy with my moving I might just do it too. Maybe we should both do it and then we'll BOTH feel cool =)