Login or Register to remove this ad.

Another Marbule (Chrono Cross) Guitar Tab

Submitted: Oct 01, 2007 by Kabukibear (Last updated: Sep 15, 2009)

4.75
Average: 4.8 (20 votes)
Download | Listen
Game: Chrono Cross
Composer(s): Yasunori Mitsuda
Style: Arrangement, Fingerstyle
Series: Chrono

Click here for a video example.

AutoScroll: Slow | Medium | Fast
Another Marbule
~Chrono Cross~
Composed by: Yasunori Mitsuda
Arranged by: Justin Lincoln

Drop D Tuning

                               T      T
     S S S S   E  S S S S S S  S S S  S    S S S S   E  S S E  S S S  E.
E||-------------------------------------|---------------------------------|
B||-------------------------------------|-------------------1--1---1S-3---|
G||-------------------------------------|-------------------0--0---0------|
D||------0---2g5--4-------0--------0h-2-|--0---0---2g5--4---0--0---0------|
A||----0------------0---0---0h-3-0------|--------0--------0---------------|
D||--0-----0---0------0-----------------|----0-------0------2----2-2S-4---|

                            T      T
  S S S S   E  S S S S S S  S S S  S    S S S S   E  S S E  S S S  S S S
-------------------------------------|-----------------------------------|
-------------------------------------|-------------------1--1---1S-3-----|
-------------------------------------|-------------------0--0---0--------|
--0---0---2g5--4-------0--------0h-2-|--0---0---2g5--4---0--0---0----0---|
----0------------0---0---0h-3-0------|--------0--------0-----------------|
--0-----0---0------0-----------------|----0-------0------2----2-2S-4---4-|

  S S S S S S S S S S S S S S S S    S S S S S S S S S S S S S S S S
--------------0-------------------|----------------------------------|
------3---3-------3-1-0-1---------|------1---1---0---------0---------|
--2-----------------------2---0---|--2---------------2-0-2---2---0---|
----0-------0-------0-------0-----|----0-------0-------0-------0-----|
----------------------------------|----------------------------------|
--0-----0-0-----0-0-----0-0-----0-|--0-----0-0-----0-0-----0-0-----0-|

  S S S S S S S S S S S S S S S S    S S S S S S S S S S S S S S S S
--------------0-------------------|------3---3---2-0-----------------|
------3---3-------3-1-0-1---------|------------------3---1---3-------|
--2-----------------------2---0---|--2-------------------------0-----|
----0-------0-------0-------0-----|----0-------0-------0---------4---|
----------------------------------|--------------------------------0-|
--0-----0-0-----0-0-----0-0-----0-|--0-----0-0-----0-0-----0-0-------|

  S S S S S S S S S S S S S S S S    S S S S S S S S S S S S S S S S
--2-------3-------0-------3-------|--2---------------0---------------|
----------------------------------|----------3---------------1-------|
------2-------2-------2-------2---|------2-------2-------2-------2---|
----0-------0-------0-------0-----|----0-------0-------0-------0-----|
----------------------------------|----------------------------------|
--0-----0-0-----0-0-----0-0-----0-|--0-----0-0-----0-0-----0-0-----0-|

                                                               |--3--|
  S S S S S S S S S S S S S S S S    S S S S S S S S S S S S S T  T  T S S
--2-------3-------0-------3-------|--2---------------0---------------------|
----------------------------------|----------3-------------0-1-0h-1p-0-----|
------2-------2-------2-------2---|------2-------2-------2-------------2-0-|
----0-------0-------0-------0-----|----0-------0-------0-------------------|
----------------------------------|--------------------------0-------------|
--0-----0-0-----0-0-----0-0-----0-|--0-----0-0-----0-0---------------------|

  E  S S S S S S E  S S S S S S    E  S S S S S S E  S S S S S S
--2--2-----3-3---0--0-----3-3---|--2--2-----------0--0-----------|
--3--3-----3-3---3--3-----3-3---|--3--3-----3-3---1--1-----1-1---|
--2--2-----2-2---2--2-----2-2---|--2--2-----2-2---0--0-----0-0---|
--------------------------------|-----------4-4------------2-2---|
---------0-----0--------0-----0-|---------0-----0--------0-----0-|
--0----0---------0----0---------|--0----0---------0----0---------|

  E  S S S S S S E  S S S S S S    E  S S S S S S S S S S E  E
--2--2-----3-3---0--0-----------|-------------------------------|
--3--3-----3-3---3--3-----1-1---|--3--3-----3-3-----3-3---3--1--|
--2--2-----2-2---2--2-----0-0---|--2--2-----2-2-----2-2---2--2--|
--------------------------2-2---|--4--4-----4-4-----4-4---4--2--|
---------0-----0--------0-----0-|----------------------------0--|
--0----0---------0----0---------|--0----0-0-----0-0-----0-0-----|

  S S S S S S S S S S S S S S S S    S S S S S S S S S S S S S S S S
--0-----------0---------------5---|--3---------------2---------------|
--------0-1-0-----3---------------|--------0-1-0-------------3-------|
------0---------0---0-2-0---0---0-|------0-------0-----2-0-----------|
----0---------------------4-------|----0-----------2-0-----4-2-0-----|
--3-------------------------------|--3---------------------------3-2-|
--------------2---0---------------|----------------------------------|

  S S S S S S S S S S S S S S S S    S S S S S S S S S S S S S S S S
--0-----------0---------------5---|--0-----0-2-----2-3-----3-5-----5-|
--------0-1-0-----3---------------|------0-------0-------0-------0---|
------0---------0---0-2-0---0---0-|----0-------0-------0-------0-----|
----0---------------------4-------|----------------------------------|
--3-------------------------------|--------------------------0-------|
--------------2---0---------------|--2-------4-------5---------------|

            |--3--|
  S S S S S T  T  T S S S S S S S S S S
--0-----------------0---------------5---|
--------0-1-0h-1p-0-----3---------------|
------0---------------0---0-2-0---0---0-|
----0---------------------------4-------|
--3-------------------------------------|
--------------------2---0---------------|

            |--3--|
  S S S S S T  T  T S S S S S S S S S S
--3-----------------0---2---3---2-------|
--------0-1-0h-1p-0-----------------3---|
------0---------------0---2---2---2---2-|
----0-----------------------------------|
--3-------------------------------------|
--------------------2---0-------0-------|

            |--3--|
  S S S S S T  T  T S S S S S S S S S S    S S S S S S S S Q    Q
--0-------------------------------------|--0-------0-----0-4----7-----||
--------0-1-0h-1p-0-------------3-------|--------0-----0--------------||
------0-------------0-----------------0-|------1-----1---------------*||
----0-----------------2-4-------0-2-4---|----2-----------------------*||
--3-----------------------0-2-3---------|-----------------------------||
--------------------2---0---------------|--2--------------------------||

                  ^
  S S S S S S S S H
--0-------0-----0-4--------||
--------0-----0---0--------||
------1-----1--------------||
----2-------------2--------||
---------------------------||
--2------------------------||

Duration Legend
---------------
W - whole
H - half
Q - quarter
E - 8th
S - 16th
T - 32nd
X - 64th
. - note dotted
|-n-|  - n-tuplets

Login or Register to remove this ad.

4 comments on Another Marbule

Dude you rock all your tabs

Dude you rock all your tabs kick ass.

WOW!!!! this tab is very

5

WOW!!!! this tab is very good its to perfect its to perfect to exist AHHHHHHHHHH!!!!!!!!!!!!!!!^^ lol

can you make the tab for teh

can you make the tab for teh soong Reminiscence in chrono cross

good tab.

4

good tab.