Ads

Another Guldove (Chrono Cross) Guitar Tab

Submitted: Feb 02, 2008 by Eythan (Last updated: Sep 26, 2009)

4.77778
Average: 4.8 (9 votes)
Download | Listen
Game: Chrono Cross
Composer(s): Yasunori Mitsuda
Style: Fingerstyle, Transcription
Series: Chrono

AutoScroll: Slow | Medium | Fast
Song: Another Guldove Background
Game: Chrono Cross
Composed by: Yasunori Mitsuda
Composed in: 1999
Tabbed by: Eythan Slootweg





     E  E  E  Q    E  E  E     E  E  E  Q    E  E  E   
E||-------------------------|-------------------------|
B||-----------0-------0-----|-----------0-------0-----|
G||--------2-------2-----0--|--------2-------2-----0--|
D||-----0-------------------|-----0-------------------|
A||-------------------------|-------------------------|
E||--3----------------------|--3----------------------|


  E  E  E  Q    E  E  E     E  E  E  Q    E  E  E     E  E  E  Q    E  E  E   
-------------------------|-------------------------|-------------------------|
-----------0-------0-----|-----------0-------0-----|-----------0-------0-----|
--------2-------2-----0--|--------2-------2-----0--|--------2-------2-----0--|
-----1-------------------|-----1-------------------|-----2-------------------|
-------------------------|-------------------------|-------------------------|
--3----------------------|--3----------------------|--3----------------------|


  E  E  E  Q    E  E  E     E  E  E  Q    E  E  E     E  E  E  Q    E  E  E   
-------------------------|-------------------------|-------------------------|
-----------0-------0-----|-----------0-------0-----|-----------0----1--3--0--|
--------2-------2-----0--|--------2-------2-----0--|--------2----------------|
-----2-------------------|-----3-------------------|-----3-------------------|
-------------------------|-------------------------|-------------------------|
--3----------------------|--3----------------------|--3----------------------|


  E  E  E  Q    E  E  E     E  E  E  Q    E  E  E     E  E  E  Q    E  E  E   
-------------------0-----|-------------------0-----|-------------------3-----|
--------1--3----1-----1--|--------1--3----1-----1--|--------1--3----1-----1--|
-----0-------------------|-----0-------------------|-----0-------------------|
-------------------------|-------------------------|--1----------------------|
--3----------------------|--3----------------------|-------------------------|
-------------------------|-------------------------|-------------------------|


  E  E  E  Q    E  E  E     E  E  E  Q    E  E  E     E  E  E  Q    E  E  E   
-------------------3-----|--------0--2-------0--2--|--------0--2-------3-----|
--------1--3----1-----1--|-----0----------0--------|-----0----------0-----0--|
-----0-------------------|-------------------------|-------------------------|
--1----------------------|--2----------------------|--0----------------------|
-------------------------|-------------------------|-------------------------|
-------------------------|-------------------------|-------------------------|


  E  E  E  Q    E  E  E     E  E  E   E  H           E  E  E  Q    E  E  E   
--0----------------0-----|--3---------------------|-------------------------|
--------1--3-------------|--------3---8--7--------|-------------------------|
-----0-----7----5-----0--|-----2-----12-----------|-----------2-------0--2--|
-------------------------|--0------------7--------|--------5-------0--------|
--3----------------------|------------------------|-----5-------------------|
-------------------------|------------------------|--3----------------------|


  E  E  E  Q    E  E  E     E  E  E  Q    E  E  E     E  E  E  Q    E  E  E   
-------------------------|-------------------------|-------------------------|
----------------------1--|-------------------------|-------------------------|
--------0--2-------0-----|--------0--2-------0--2--|--------0--2-------0--2--|
-----1----------1--------|-----0----------0--------|-----0----------0--------|
-------------------------|-------------------------|-------------------------|
--3----------------------|--3----------------------|--3----------------------|


  E  E  E  Q    E  E  E     E  E  E  Q    E  E  E     E  E  E  Q    E  E  E   
-------------------------|-------------------------|-------------------------|
-------------------------|----------------------1--|-------------------0-----|
--------0--2-------0--2--|--------0--2-------0-----|--------0--2----------0--|
-----0----------0--------|-----1----------1--------|-----2----------2--------|
-------------------------|-------------------------|-------------------------|
--3----------------------|--3----------------------|--3----------------------|


  E  E  E  Q    E  E  E     E  E  E  Q    E  E  E     E  E  E  Q    E  E  E   
-------------------------|----------------------3--|----------------------3--|
-----------1-------0-----|--------1--3-------1-----|--------0--3-------0-----|
--------2-------------2--|-----0----------0--------|-----0----------0--------|
-----3----------3--------|-------------------------|-------------------------|
-------------------------|--3----------------------|--2----------------------|
--3----------------------|-------------------------|-------------------------|


  E  E  E  Q    E  E  E     E  E  E  E  E  E  E  E     E  E  E  Q    E  E  E   
-------------------2--3--|--------0--2--------0--2--|-------------------------|
--------1--4-------------|-----0-----------0--------|--------1--3-------1--3--|
-----2----------2--------|--------------------------|-----0----------0--------|
--1----------------------|--2-----------0-----------|-------------------------|
-------------------------|--------------------------|--3----------------------|
-------------------------|--------------------------|-------------------------|


  E  E  E  Q    E  E  E     E  E  E   Q    E  E   E   
-----------0----------0--|--3------------------------|
--------3----------3-----|-----0--3---8----0-----10--|
-----2----------2--------|-----------12-------7--14--|
--0----------------------|--2------------------------|
-------------------------|---------------------------|
-------------------------|---------------------------|


  E  E   E   Q    E   Q       E  E  E  Q    E  E  E     E  E  E  E  Q    Q     
---------------------------|-----------2----2-----2--|--3-----3---------------|
--L--0------12----0---8----|--7----------------------|-----------0--3---------|
--L---------16-------12----|-----0--5----------0-----|-----0-------------0----|
--------12-----------------|-------------------------|------------------------|
---------------------------|-------------------------|--2---------------------|
---------------------------|--8----------------------|------------------------|


  E  E  E  Q    E  E  E     E  E  E  E  Q    Q       E  E  E  Q    E  E  E   
--0--------0----0-----0--|--1-----1---------------|-------------------------|
-------------------------|--------------1---------|--3--------3----3-----3--|
-----0--3----------0-----|-----------2------------|--------1----------1-----|
-------------------------|-----3-------------3----|-----3-------------------|
--1----------------------|--0---------------------|-------------------------|
-------------------------|------------------------|--4----------------------|


  E  E  E  E  Q    Q       Q    E  Q    E  E  E     E  E  E  E  Q    Q     
------------------------|--8---------------------|--7-----------3---------|
--4-----4---------------|----------1-------3-----|--------0-----3---------|
-----------0--3---------|-------0-------0-----0--|-----0-----0-------0----|
-----1-------------1----|------------------------|------------------------|
------------------------|--0---------------------|------------------------|
--3---------------------|------------------------|--7---------------------|


  Q    E  Q    E  E  E     Q    E  Q    E  E  E     Q    E  Q    E  Q     
--5-------7-------3-----|----------3-------2-----|--3-------0-------3----|
------------------------|--3---------------------|-------0-------0-------|
-------0-------5-----0--|-------2-------2-----2--|-----------------------|
------------------------|--0---------------------|--2--------------------|
--3---------------------|------------------------|-----------------------|
------------------------|------------------------|-----------------------|


  E  E  E  E  Q    E  E     E  E  E  Q    E  E  E     E  E  E  Q    E  E  E   
--L--3--5--7--8----7--5--|-----3-------------------|-------------------------|
-------------------------|-----------0-------0-----|-----------0-------0-----|
-------------------------|--------2-------2-----0--|--------2-------2-----0--|
-------------------------|-----0-------------------|-----0-------------------|
-------------------------|-------------------------|-------------------------|
-------------------------|--3----------------------|--3----------------------|


  E  E  E  Q    E  E  E     E  E  E  Q    E  E  E     E  E  E  Q    E  E  E   
-------------------------|-------------------------|-------------------------|
-----------0-------0-----|-----------0-------0-----|-----------0-------0-----|
--------2-------2-----0--|--------2-------2-----0--|--------2-------2-----0--|
-----1-------------------|-----1-------------------|-----2-------------------|
-------------------------|-------------------------|-------------------------|
--3----------------------|--3----------------------|--3----------------------|


  E  E  E  Q    E  E  E     E  E  E  Q    E  E  E     E  E  E  Q    E  E  E   
-------------------------|-------------------------|-------------------------|
-----------0-------0-----|-----------0-------0-----|-----------0----1--3--0--|
--------2-------2-----0--|--------2-------2-----0--|--------2----------------|
-----2-------------------|-----3-------------------|-----3-------------------|
-------------------------|-------------------------|-------------------------|
--3----------------------|--3----------------------|--3----------------------|


  E  E  E  Q    E  E  E     E  E  E  Q    E  E  E     E  E  E  Q    E  E  E   
-------------------0-----|-------------------0-----|-------------------3-----|
--------1--3----1-----1--|--------1--3----1-----1--|--------1--3----1-----1--|
-----0-------------------|-----0-------------------|-----0-------------------|
-------------------------|-------------------------|--1----------------------|
--3----------------------|--3----------------------|-------------------------|
-------------------------|-------------------------|-------------------------|


  E  E  E  Q    E  E  E     E  E  E  Q    E  E  E     E  E  E  Q    E  E  E   
-------------------3-----|--------0--2-------0--2--|--------0--2-------3-----|
--------1--3----1-----1--|-----0----------0--------|-----0----------0-----0--|
-----0-------------------|-------------------------|-------------------------|
--1----------------------|--2----------------------|--0----------------------|
-------------------------|-------------------------|-------------------------|
-------------------------|-------------------------|-------------------------|


  E  E  E  Q    E  E  E     E  E  E  E  H           E  E  E  Q    E  E  E   
--0----------------0-----|--3--------3--2--------|-------------------------|
--------1--3----1--------|--------3--------------|-------------------------|
-----0----------------0--|-----2--------2--------|--------0--2-------0--2--|
-------------------------|--0--------------------|-----0----------0--------|
--3----------------------|-----------------------|-------------------------|
-------------------------|-----------------------|--3----------------------|


  E  E  E  Q    E  E  E     E  E  E  Q    E  E  E     E  E  E  Q    E  E  E   
-------------------------|-------------------------|-------------------------|
----------------------1--|-------------------------|-------------------------|
--------0--2-------0-----|--------0--2-------0--2--|--------0--2-------0--2--|
-----1----------1--------|-----0----------0--------|-----0----------0--------|
-------------------------|-------------------------|-------------------------|
--3----------------------|--3----------------------|--3----------------------|


  E  E  E  Q    E  E  E     E  E  E  Q    E  E  E     E  E  E  Q    E  E  E   
-------------------------|-------------------------|-------------------------|
-------------------------|----------------------1--|-------------------0-----|
--------0--2-------0--2--|--------0--2-------0-----|--------0--2----------0--|
-----0----------0--------|-----1----------1--------|-----2----------2--------|
-------------------------|-------------------------|-------------------------|
--3----------------------|--3----------------------|--3----------------------|


  E  E  E  Q    E  E  E     E  E  E  Q    E  E  E     E  E  E  Q    E  E  E   
-------------------------|----------------------3--|----------------------3--|
-----------1-------0-----|--------1--3-------1-----|--------0--3-------0-----|
--------2-------------2--|-----0----------0--------|-----0----------0--------|
-----3----------3--------|-------------------------|-------------------------|
-------------------------|--3----------------------|--2----------------------|
--3----------------------|-------------------------|-------------------------|


  E  E  E  Q    E  E  E     E  E  E  E  E  E  E  E     E  E  E  Q    E  E  E   
-------------------2--3--|--------0--2--------0--2--|-------------------------|
--------1--4-------------|-----0-----------0--------|--------1--3-------1--3--|
-----2----------2--------|--------------------------|-----0----------0--------|
--1----------------------|--2-----------0-----------|-------------------------|
-------------------------|--------------------------|--3----------------------|
-------------------------|--------------------------|-------------------------|


  E  E  E  Q    E  E  E     E  E  E  Q    E  E  E     E  E  E  Q    E  Q     
-----------0----------0--|--3--------3----------5--|--L--------7-------3----|
--------3----------3-----|-----0--3-------0--3-----|-----0--3-------0-------|
-----2----------2--------|-------------------------|------------------------|
--0----------------------|--2----------------------|------------------------|
-------------------------|-------------------------|------------------------|
-------------------------|-------------------------|------------------------|


  E  E  E  Q    E  E  E     E  E  E  E  Q    Q       E  E  E  Q    E  E  E   
--2--------2----2-----2--|--3-----3---------------|--0--------0----0-----0--|
--------1----------------|-----------0--3---------|-------------------------|
-----0-------------0-----|-----0-------------0----|-----0--3----------0-----|
-------------------------|------------------------|-------------------------|
--3----------------------|--2---------------------|--1----------------------|
-------------------------|------------------------|-------------------------|


  E  E  E  E  Q    Q       E  E  E  Q    E  E  E     E  E  E  E  Q    Q     
--1-----1---------------|-------------------------|------------------------|
--------------1---------|--3--------3----3-----3--|--4-----4---------------|
-----------2------------|--------1----------1-----|-----------0--3---------|
-----3-------------3----|-----3-------------------|-----1-------------1----|
--0---------------------|-------------------------|------------------------|
------------------------|--4----------------------|--3---------------------|


  Q    E  Q    E  E  E     E  E  E  E  Q    Q       Q    E  Q    E  E  E   
--8---------------------|--7-----------3---------|--5-------7-------3-----|
----------1-------3-----|--------0-----3---------|------------------------|
-------0-------0-----0--|-----0-----0-------0----|-------0-------5-----0--|
------------------------|------------------------|------------------------|
--0---------------------|------------------------|--3---------------------|
------------------------|--7---------------------|------------------------|


  Q    E  Q    E  E  E     Q    E  Q    E  Q       E  E  E  E  Q    E  E   
----------3-------2-----|--3-------0-------3----|--L--3--5--7--8----7--5--|
--3---------------------|-------0-------0-------|-------------------------|
-------2-------2-----2--|-----------------------|-------------------------|
--0---------------------|--2--------------------|-------------------------|
------------------------|-----------------------|-------------------------|
------------------------|-----------------------|-------------------------|


  E  E  E  Q    E  E  E     E  E  E  Q    E  E  E     E  E  E  Q    E  E  E    
-----3-------------------|-------------------------|-------------------------||
-----------0-------0-----|-----------0-------0-----|-----------0-------0-----||
--------2-------2-----0--|--------2-------2-----0--|--------2-------2-----0--||
-----0-------------------|-----0-------------------|-----1-------------------||
-------------------------|-------------------------|-------------------------||
--3----------------------|--3----------------------|--3----------------------||




Duration Legend
---------------
W - whole
H - half
Q - quarter
E - 8th
S - 16th
T - 32nd
X - 64th
. - note dotted
|-n-|  - n-tuplets


Tablature Legend
----------------
L - tied note
Login or Register to remove this ad.

7 comments on Another Guldove

This is almost good, but it

This is almost good, but it seems it was converted straight from the midi. Some notes are impossible to play on a nylon and some are better left out(The high notes). Can someone fix this?

Like this? I just edited it

Like this? I just edited it slightly, so I take no credit, but here it is :)

Slightly edited tab

Ah thank you auriplane! I

Ah thank you auriplane! I just played through the first half really quick. It sounds great. Now if you can fix a couple more for me...
ah jk :p

-_-

Yay auri! i really like! ^_^

Thanks auri! It is beautiful!

Thanks auri! It is beautiful!

love it

5

i have been just learning guitar and its nice to be able to play stuff i can relate to.

yes

5

auriplane, thanks, and that was so lovely