Ads

Lost Painting (Castlevania: Symphony of the Night) Guitar Tab

Submitted: Aug 17, 2008 by Sho (Last updated: Oct 22, 2009)

5
Average: 5 (10 votes)
Download | Listen
Game: Castlevania: Symphony of the Night
Composer(s): Michiru Yamane
Style: Arrangement, Fingerstyle
Series: Castlevania

AutoScroll: Slow | Medium | Fast
LOST PAINTING

(From SYMPHONY OF THE NIGHT)

Gtr I (E A D G B E) 


 4/4
  Gtr I
  Q E E Q Q Q Q E Q. H H E   E E E E E  E E  E E E E E E  E E  E E E E E E
|-2-0-2-----2-7-5-7--4-0-2---9-8---7-----------9-8---7-----------9-8---7---|
|-------2------------------------9---9-10-9--------9---9-10-9--------9---9-|
|-------------------------------------------11----------------11-----------|
|-4-2-------0--------------------------------------------------------------|
|-------4-4----------4-4---------------------------------------------------|
|------------------------2-------------------------------------------------|
                           W


   E E  E E E E E E  E E Q Q H Q E E Q Q Q E E Q Q H H Q Q H Q E E Q Q Q E
|---------9-8---7------------9---7-9-5-4-2-4-5-4-0---------9---7-9-5-4-2-4-|
|-10-9--------9---9-10-9---7-----------------------7-----7-----------------|
|------11------------------------------------------------------------------|
|--------------------------------------------------6-----------------------|
|------------------------9---7-5-----4---2-----4-----9-9---7-5-----4---2---|
|--------------------------------------------------------------------------|


  E Q Q W  Q H E E Q Q Q E E  Q H E E Q  Q  Q Q H Q E E Q Q Q Q H Q E E Q Q
|-5-4-0----9-7-5-7-9----------9-7-5-7-9-12-10-9-2---4-5-4-0-0---2---4-5-9---|
|-------7------------9-9--------------------------------------2-----------9-|
|------------------------6--------------------------------------------------|
|-----------------------------------------------4-2-------------4-2---------|
|---4---9------7-5----------------7-5------11-7---------4-----4-------------|
|---------10-------9---9-7-9-10-------9---------------------4-----------9---|


  Q  Q  Q E E H Q Q H Q E E H Q Q H Q Q H Q E E Q Q Q E E Q Q Q Q H
|-------9-7-9-5-4-7-4-5-7-5-4---4-9-----9---7-9-5-4-2-4-5-4-0----------|
|-9-------------5-------------2-------7-----------------------7--------|
|---------------6------------------------------------------------------|
|---11----------6-----7-9-7-6---6-----------------------------6---4----|
|---11----------4-------------4-----9---7-5-----4---2-----4------------|
|-9----10-------4-----------------9-----------------------------9-2----|
		(Strum Chord)

  Q. E Q Q Q H E E Q. E Q Q E E E E E E E E Q E E E E Q Q E E E E Q E E Q
|--------0----------------0---0-2-------2-4-5-4-5-4-0---2-0-2-0-----------|
|-2--0-2---0-4-----2--0-2---4---------4---4-----------2---------2---0---0-|
|--------------4----------------4---4-----------------------------2-0-2-0-|
|-4--------------4-4--------------4-----------------------------------4---|
|----------2----------------2---------------5-----4-----2-----0-----------|
|-------------------------------------------------------------------3-----|


  Q E E E E Q Q Q Q. E Q Q Q Q E E E E Q. E Q Q E E E E E E E E Q E E E E
|------------------------0--------------------0---0-2-------2-4-5-4-5-7-4-|
|-----0-----------2--0-2---0-4-------4-2--0-2---4---------4---------------|
|---2---6-4-6----------------------4--------------------4-----------------|
|---4---6-4-6---6-4--------------4-4-4-4--------------4-------------------|
|-------4-----4------------2---4--------------0-2---2-----------5-----4---|
|-3-----------------------------------------------------------------------|


  Q Q E E E E Q Q E E E E Q Q Q H
|-0---4-5-4-0-------------------2----|
|---7---------------------------2----|
|-------------4-2-1-------------2----|
|---------------0---4-6-2---4---4----|
|---5-----4-----------4---4---4-4----|
|-------------------------------2----|
			       (Slow Strum Chord)
Login or Register to remove this ad.

11 comments on Lost Painting

looks uhhhh Very difficult

looks uhhhh Very difficult lol

Re: Lost Painting

OMG this tabs is sooo awesome, how come no one has rate it 5 stars so far?!!!

Very very thanks, always wanted to play something from the Castlevania series and this tab does the job just great, many thanks Sho <3

i can't understand this tab

i can't understand this tab is hard... but i can hear so so the track

Sure this tab is difficult. Play it and learn it.

Just practice the tab. Get what you can from it. Play it a few times and you will hear the tune.

Use a capo on fret 2

You should put a capo on fret 2 to make this much MUCH easier. You will have to adjust the tab but this is what some of it looks like with a capo on 2:

||--0----0-------0--5--3-5---|--2---------0-7-6---5-------|
||-----3---0-----------------|-------3----------7---7-8-7-|
||---------------------------|----------------------------|
||--2--0---------------------|----------------------------|
||---------2--2--3-----------|--2----2--------------------|
||---------------------------|----------------------------|

 
--0-7-6---5-------0-7-6---5-------|--0-7-6---5----------0--7----|
--------7---7-8-7-------7---7-8-7-|--------7---7-8-7------------|
----------------------------------|-----------------------------|
----------------------------------|------------------------0----|
----------------------------------|------------------7----------|
----------------------------------|-----------------------------|

       
-----5-7-3--2--0----2--3--|--2---------0--------|
--------------------------|-------3-------------|
--------------------------|---------------------|
--------------------------|------------4--------|
--3------2-----0----------|--2------------------|
--------------------------|---------------------|

So I would consider doing that.

That's nice.

If you see an area you think can be improved, go ahead and do so. I posted this tab for others to enjoy and change as they see fit. I created this tab by ear and it took a very long time to complete. It is not a difficult tab but if you don't like something about it, feel free to make changes. I have not seen another Lost Painting tab created yet. I would enjoy playing other tabber's versions of this song.

thanks kabuki

nice observation. Indeed it's easier to play with a capo.

Good Tab

5

I really like this tab and well I find its pretty easy to play. Although when i play it i play it like this.

|-9-8---7---6-----9-8---7---6-----|
|-----9---8---7-6-----9---8---7-6-|
|-------------------------------------|
|-------------------------------------|
|-------------------------------------|
|-------------------------------------|

Because in my opinion it sounds better
its much easier then playing this way.

|-9-8---7-----------9-8---7-----------9-8---7-----|
|-----9---9-10-9--------9---9-10-9--------9---9-|
|----------------11----------------11---------------|
|-----------------------------------------------------|
|-----------------------------------------------------|
|-----------------------------------------------------|

Your Good At This Keep It Coming

I love this tab need some more

Just amazing.

5

Just amazing.

This is the hardes t piece i

5

This is the hardes
t piece i can play. i wish to know what level is this?