Ads

Overworld Theme 2 (Breath of Fire III) Guitar Tab

Submitted: Jun 05, 2008 by TKStriker (Last updated: Jul 08, 2008)

5
Average: 5 (2 votes)
Download | Listen
Game: Breath of Fire III
Composer(s): Yoshino Aoki, Akari Kaida
Style: Transcription

AutoScroll: Slow | Medium | Fast
Breath of Fire 3 - Overworld theme

This is basically the flute portion of the chorus, but it 
sounds nice on guitar. This piece is completely in position, 
so use it as a good warm-up exercise. Enjoy.


e----------------------------------------------------
B----------------------------------------------------
G-------------1----------------------------1---1-3-3-
D-1-3-4---3-4---4-3------------1---0-1-3-4---4-------
A--------------------4-1---2-4-----------------------
E----------------------------------------------------

e------------------------------------------------
B------------------------------------------------
G-------------1----------------------------------
D-1-3-4---3-4---4-3------------1---0-1-3-4-3-3-1-
A--------------------4-1---2-4-------------------
E------------------------------------------------


e------------------------------------------
B------------------------------------------
G---1-3-----3-1----------------------------
D-4-----1-----------------1---1-4-3--------
A---------------4---1-2-4---4-------4-1-4--
E------------------------------------------

e----------------------------------------------
B----------------------------------------------
G--------------------------1--3-----3----1-3\0
D---1---1---1-3---3-1-3-4---------1---1--------
A-4-------4------------------------------------
E----------------------------------------------
Login or Register to remove this ad.

2 comments on Overworld Theme 2

This is Overworld theme 2

This is Overworld theme 2

Nice. The song is called To a

5

Nice. The song is called To a Distant Place