Ads

Dan Don Fuga (We Love Katamari) Bass Tab

Submitted: Oct 02, 2007 by Kabukibear (Last updated: May 07, 2008)

5
Average: 5 (1 vote)
Download | Listen
Game: We Love Katamari
Composer(s): Yu Miyake
Style: Arrangement

AutoScroll: Slow | Medium | Fast
Dan Don Fuga
~We Love Katamari~
Composed By: Yu Miyake
Arranged By: Justin Lincoln

Bass

     W                   W                   W
G||-------------------|-------------------|-------------------|
D||-------------------|-------------------|-------------------|
A||-------------------|-------------------|-------------------|
E||-------------------|-------------------|-------------------|

  W                   W                   Q    Q.     E  E  E
-------------------|-------------------|--5----0------2--0-----|
-------------------|-------------------|--------------------3--|
-------------------|-------------------|-----------------------|
-------------------|-------------------|-----------------------|

  E  E  E  E  E  E  E  S S    E  E  E  E  Q.     E     E  E  E  E  E  E  E  E
-----------------------0---|--------------2------0--|-----0--2--0--------------|
--2--0--2-----3--3--3----3-|--2--0--2---------------|--3-----------3--2--0-----|
-----------3---------------|-----------3------------|-----------------------3--|
---------------------------|------------------------|--------------------------|

  E  E  Q.     E  E  E     Q    E  E  Q    E  E     E  E.  S S S E  Q    E
------------------------|------------------------|--------------------------|
--------2------3--2--0--|-------------0----------|--------------------------|
--2---------------------|--3-------3----------2--|--0--0---2-3-0-2----------|
------------------------|------------------------|------------------2----4--|

  E  E  E  E  Q.     E     Q.     E  Q    Q       E  E  E  E  H
------------------------|----------------------|-----------------------|
------------------------|--4------4--2----0----|-----------1--2--------|
--0-----0--2--3------0--|----------------------|--3--2--4--------------|
-----4------------------|----------------------|-----------------------|

  Q    Q    Q    E  E     Q    Q    E  E  E  E     E  E  E  S S E  E  E  E
-----------------------|-------0----------------|--2--2--2--2-0-------------|
--L----1----2----0--2--|--3---------2--2--3--2--|---------------3--2--0-----|
-----------------------|------------------------|------------------------3--|
-----------------------|------------------------|---------------------------|

  E  E  Q    Q    E  E     Q    Q.     E  E  E     E  E  E  E  E  E  E  S S
------------------------|-----------------------|---------------------------|
------------------------|--3-----------0--------|---------------------------|
--1--0--1----3----3-----|-------3---------3--1--|--0-----0-----1--1--1--3-1-|
------------------------|-----------------------|-----3-----1---------------|

  H        H           H        H           H        Q.     E
--------------------|--------------------|---------------------|
--------------------|--------------------|---------------------|
--0-----------------|--------------------|-----------0---------|
-----------3--------|--3--------3--------|--3---------------3--|

  H        H           Q         H
--------------------|--------||-----------||
--------------------|-------*||-----------||
--------------------|--3----*||--3--------||
--1--------3--------|--------||-----------||

Duration Legend
---------------
W - whole
H - half
Q - quarter
E - 8th
S - 16th
T - 32nd
X - 64th
. - note dotted
|-n-|  - n-tuplets

Tablature Legend
----------------
L - tied note
Login or Register to remove this ad.