Ads

Intro Theme (Tales of the Abyss) Guitar Tab

Submitted: Sep 06, 2008 by Gloups

4.666665
Average: 4.7 (3 votes)
Download | Listen
Game: Tales of the Abyss
Composer(s): Motoi Sakuraba, Shinji Tamura, Motoo Fujiwara
Style: Transcription

This song is also called Karma

AutoScroll: Slow | Medium | Fast
                         -> Intro (US) <-       (a.k.a. Bump of Chicken - Karma)
                                                      [Instrumental version]      

                                     From : Tales of the Abyss
 Tabbed by : Gloups                             Year: 2006
 BPM : 100

____________________
 [Intro] :

E||---------------------------------------|
B||---------------------------------------|
G||--11---10-----------11---10------------|
D||---9----8---11---6---9----8---11---4---|
A||---9----8----9---4---9----8----9---2---|
E||-------------9---4-------------9---2---|


--------------------------------------------|
--------------------------------------------|
-11---10-------------11--10-------6-6-6-6-6-|
--9----8---11---6-----9---8--11---4-4-4-4-4-|
--9----8----9---4-----9---8---9---4-4-4-4-4-|
------------9---4-------------9-------------|


__________________
    [Intro RIFF] :     (That was the best I could do for this part, I'm not
                         quite sure he's actually playing that but it sounds ok...)

|----6--6--6---9--------9------x--7--7-7-7-7-7---9--9-9-9-9----|
|----7--6--7---9--------9------x--7--7-7-7-7-7---9--9-9-9-9----|
|-8--8--6--8--10---10--10--10--x--4--4-4-4-4-4---6--6-6-6-6----|
|-8-----------------9-------9--x--4--4-4-4-4-4---6--6-6-6-6----|
|--------------------------------------------------------------|
|--------------------------------------------------------------|


    
-----6--6-6--9--------9------x--7--7-7-7-7-7---9--9-9-9-9\--|
-----6--6-6--9--------9------x--7--7-7-7-7-7---9--9-9-9-9\--|
--8--8--6-6-10---10--10--10--x--4--4-4-4-4-4---6--6-6-6-6\--|
--8-------6-------9-------9--x--4--4-4-4-4-4---6--6-6-6-6\--|
------------------------------------------------------------|
------------------------------------------------------------|
__________________

  [Verse] :

  
|-------------------------------------------------------------
|--11--11--11------9--11--11--11---9--11--9--11--9--9---------
|--------------11--------------------------------------11--11-
|-------------------------------------------------------------
|-------------------------------------------------------------
|-------------------------------------------------------------


  
-----------------------------------------9-9------------
----------------9-----------------9----------11-9-------
--8--8-------------11----------------11-----------11----
--------11--11----------11----11------------------------
--------------------------------------------------------
--------------------------------------------------------


 
-----------------------------------|--------------------------------
------11--11--9-----------------9--|--11--11--11------9--11--11--11-
--11-------------8--10--11--10-----|--------------11----------------
-----------------------------------|--------------------------------
-----------------------------------|--------------------------------
-----------------------------------|--------------------------------


 
----------------------------------------------------------
--9--11--9--11--9--9-------------------------9------------
----------------------11--11---8--8-------------11--------
-------------------------------------11--11-----------11--
----------------------------------------------------------
----------------------------------------------------------



--------------9---11--------------------------------------|
------9---------------11---------/14--12--11--------------|
---------11----------------11-----------------11--10--11--|
--11------------------------------------------------------|
----------------------------------------------------------|
----------------------------------------------------------|

_______________

   [PreChorus] :


|-------------------------------------11--------------------------
|---------------------11--14--14-----------14--12--11--12--11--14-
|--------11--13--11---------------11------------------------------
|--11--11---------------------------------------------------------
|-----------------------------------------------------------------
|-----------------------------------------------------------------



--14--14--11-------------------------------------------11------|
--------------14-----------------------11--14--14----------14--|
---------------------------11--13--11--------------11----------|
-------------------11--11--------------------------------------|
---------------------------------------------------------------|
---------------------------------------------------------------|


                                                             
 
------------------------------11-------10--11--13----|
--14--14--12--11----------11-------11----------------|
------------------13--11-----------------------------|
-----------------------------------------------------|
-----------------------------------------------------|
-----------------------------------------------------|

___________________

   Chorus :  Play:[Chorus], [End.A], [Chorus], [End.B].

[Chorus<---

----14--13-------------------------11---------------------------------|
-14--------14--11--12--14--14--14------14--12--11--11--11------11--12-|
-----------------------------------------------------------13---------|
----------------------------------------------------------------------|
----------------------------------------------------------------------|
----------------------------------------------------------------------|


                                        -->Chorus] <_[End.A]_>     
   
------------------------11--13---11--14----13--11-|-----------|
--11----------------11----------------------------|-------11--|
------13--11--13----------------------------------|--11-------|
--------------------------------------------------|-----------|
--------------------------------------------------|-----------|
--------------------------------------------------|-----------|


 <________________[End.B]___________________>     
|------------------------11--14----13--14----|
|--11--12--14--12----14----------------------|
|--------------------------------------------|
|--------------------------------------------|
|--------------------------------------------|
|--------------------------------------------|

________________


  [Bridge] :
                                                               
  
|--------------------------------------------------------------
|------------------14----14--12--11--12--11--------------------
|------10--11--13----------------------------11--13--------10--
|--13--------------------------------------------------13------
|--------------------------------------------------------------
|--------------------------------------------------------------


 
-------------------------------------------
----------14--14--12-12--11-11-------------
--11--13------------------------13-13--11--
-------------------------------------------
-------------------------------------------
-------------------------------------------


 
------------------11--13--14------------------------------------|
----------11--12--------------14--12--12--11--------------------|
--11--13--------------------------------------13--11--11----11--|
----------------------------------------------------------------|
----------------------------------------------------------------|
----------------------------------------------------------------|


                                        
             
----------------------14--------------|
--11--------------11-------------11---|
------13--11--13------------11--------|
--------------------------------------|
--------------------------------------|
--------------------------------------|

_______________________

Then : [Chorus], [End.A], [Chorus], [End.A], [Chorus], [End.C]:


   [End.C] :

|--------------------------11--14--13--14------------------------
|--11--12--14--14--12--14--------------------11--12--14--14--12--
|----------------------------------------------------------------
|----------------------------------------------------------------
|----------------------------------------------------------------
|----------------------------------------------------------------


  
------11--14--13------14-------13----------------14----13--------|
--14--------------14---------------14---------------------14--16-|
---------------------------------------------11------------------|
-----------------------------------------------------------------|
-----------------------------------------------------------------|
-----------------------------------------------------------------|
 
   Then one more [Intro RIFF] and that's it ! :D
    Enjoy !
Login or Register to remove this ad.

4 comments on Intro Theme

Nice Tab man, Good Work !

Nice Tab man, Good Work !

godd tab but can u tell me

godd tab but can u tell me where can i download the song

Here you go ;) : Mp3:

great tab sounds great bt

great tab sounds great bt just misssing a few notes here and there not hard to figure out but nice job